PrimaNota.ru - самый крупный в мире бесплатный архив песенных текстов, аккордов, табулатур и нот


Immortals - Mortal Kombat Theme - таба, видео

Регистрация Запомнить меня
Войти через:  Facebook Google Twitter Vk Yandex Mail.ru

Immortals - Mortal Kombat Theme - таба, видео

Печатать
Просмотров: 2104
Author/Artist: The Immortals
Title: Mortal Kombat Theme Song
Album: Mortal Kombat Soundtrack
Transcribed by: Chris Becker
Email: kaplutt@aol.com

------------------------------------------------------------------------------|
------------------------------------------------------------------------------|
---------------------2---5---2------------------------------------------------|
-0-0-3-0-5-0-7-5-3-3---3---3---3-----2---5---2-------0---3---0----------------|
---------------------------------3-3---3---3---3-1-1---1---1---1--------------|
------------------------------------------------------------------------------|
 x2 i think.  then its

------------------------------------------------------------------------------|
------------------------------------------------------------------------------|
-7-7-7-7-5-9-7-7-7-7-5-2-7-7-7-7-5-9-7-7-7-777--------------------------------|
-7-7-7-7-5-9-7-7-7-7-5-2-7-7-7-7-5-9-7-7-7-777--------------------------------|
-5-5-5-5-3-7-5-5-5-5-3-0-5-5-5-5-3-7-5-5-5-555--------------------------------|
------------------------------------------------------------------------------|
 the rest youll have too figure out for your self.  sorry ='(
Добавлено: 23.05.2012
Другие материалы по этой песне:

Страница создана 19.03.2012
http://primanota.ru/immortals/mortal-kombat-theme-chords.htm
Привет, Гость.
Предлагаем пройти революционный курс по гитаре.
Подарок от PrimaNota.Ru, забирай!