PrimaNota.ru - самый крупный в мире бесплатный архив песенных текстов, аккордов, табулатур и нот


Immortal - Within The Dark Mind - таба, видео

Регистрация Запомнить меня
Войти через:  Facebook Google Twitter Vk Yandex Mail.ru

Immortal - Within The Dark Mind - таба, видео

Печатать
Просмотров: 50
Авторы музыки: Horgh, Abbath Doom Occulta
Авторы текста: Demonaz Doom Occulta
Artist: Immortal
Song: Within The Dark Mind
Album: Sons Of Northern Darkness
Tuning: EADGBE

Key
"=Tremolo Pick
..=Palm Mute
U=Up
t-tap

Riff A1
E|-------------|
B|-------------|
G|-------------|
D|-0-0-0-8-----]
A|-0-0-0-8-----]
E|-------------]


E|---------------------|
B|---------6-----------|
G|--------5------------|
D|0-0-0-8--------------|
A|0-0-0-8--------------|
E|---------------------|

E|--------------------------------------------|
B|--------------------------------------------|
G|--------------------------------------------|
D|-0--0--0--8-8-8-8--8-8-8-8--10--10--10--10--|
A|-0--0--0--8-8-8-8--8-8-8-8--10--10--10--10--|
E|----------6-6-6-6--6-6-6-6--8---8---8---8---|

Riff A2
E|----------------------------------------------------|
B|----------------------------------------------------|
G|----------------------------------------------------|
D|0-0-0--------0-0-0----------------------------------|
A|0-0-0--3--1--0-0-0--3--1--1--1--1--0--3--1----------|
E|----------------------------------------------------|

Riff A3
E|----------------------------------|
B|----------------------------------|
G|----------------------------------|
D|0-0-0-0--2-2----------------------|
A|0-0-0-0--2-2----------------------|
E|----------------------------------|

Riff B1
E|-----------|
B|-----------|
G|-----------|
D|0-0-0--1--2|
A|0-0-0--1--2|
E|-----------|

E|-------------------------------------------------------------------|
B|-------------------------------------------------------------------|
G|-------------------------------------------------------------------|
D|0--3--3--3--3--5--5--5--6--6--6--0--3--3--3--3--5--5--5--6--6--6--6|
A|-------------------------------------------------------------------|
E|-------------------------------------------------------------------|

Riff C1
11 not 1,1
E|---------------------------------------------------|
B|---------------------------------------------------|
G|---------------------------------------------------|
D|1-1-1-1--0-0-0-0--1-1-1-1--0-0-0--9--0-0-0-0--1-1-1|
A|1-1-1-1--0-0-0-0--1-1-1-1--0-0-0--9--0-0-0-0--1-1-1|
E|---------------------------------------------------|

E|---------------------------------------------------------------------------|
B|---------------------------------------------------------------------------|
G|---------------------------------------------------------------------------|
D|8-8-8-8--7-7-7-7--8-8-8-8--10---7---8--7--8--7--7-7-7-7--10--10--10--10--10|
A|6-6-6-6--5-5-5-5--6-6-6-6---8---5---------------5-5-5-5---8---8---8---8---8|
E|---------------------------------------------------------------------------|

Solo
E|-------------------------------------------------------------|
B|-------------------------------------------------------------|
G|7--7--7-7-7--9-9-9--10-10--12--12--2--3----------------------|
D|-------------------------------------------------------------|
A|-------------------------------------------------------------|
E|-------------------------------------------------------------|
Добавлено: 11.05.2016
Другие материалы по этой песне:

Страница создана 09.05.2012
http://primanota.ru/immortal/within-the-dark-mind-chords.htm
Привет, Гость.
Предлагаем пройти революционный курс по гитаре.
Подарок от PrimaNota.Ru, забирай!