PrimaNota.ru - самый крупный в мире бесплатный архив песенных текстов, аккордов, табулатур и нот


Immortal - Unsilent Storms In The North Abyss - текст песни, таба, видео

Регистрация Запомнить меня
Войти через:  Facebook Google Twitter Vk Yandex Mail.ru

Immortal - Unsilent Storms In The North Abyss - текст песни, таба, видео

Печатать
Просмотров: 113
Уроки эстрадного вокала в Санкт-Петербурге
Авторы музыки: Demonaz Doom Occulta, Abbath Doom Occulta
Авторы текста: Demonaz Doom Occulta
RIFF A (4x)
|----0---00000------0------------|
|----0---11111------0------------|
|----0--------------0------------|
|-2------33333--2-------6--6--6--|
|-2------33333--2-------6--6--6--|
|-0------11111--0-------4--4--4--|


  RIFF B (verse)
|--------------------------------------------------------------|
|--------------------------------------------------------------|
|--------------------------------------------------------------|
|------------------------------7----------------------7-7-6-6--|
|-2222220022222000222222002222/5555-22222220022220000-5-5-4-4--|
|--------------------------------------------------------------|

  RIFF A 2x

 RIFF C (chorus)
|-------------------------------------------------------------------------------|
|-------------------------------------------------------------------------------|
|-------------------------------------------------------------------------------|
|-5"----9"--5"----7"--5"-----9"--5"----7"--5"----9"--5"-----7"--4"----7"-4"-5"--|
|-------------------------------------------------------------------------------|
|-------------------------------------------------------------------------------|

 RIFF D (break riff)
|----------------------------------------------------------------------------|
|----------------------------------------------------------------------------|
|-9---11---9--11--10--12--10--131210--9----11---9---11-----10--12--10--131210|
|-9999-99999999-99101010101010101010109999-999999999-99999910101010101010----|
|-7777-77777777-778-8-8-8-8-8-8-8-8-8-7777-777777777-777777-8-8-8-8-8-8-8/19-|
|----------------------------------------------------------------------------|


|------------------------------------------------------------------------------|
|------------------------------------------------------------------------------|
|-9---11---9--11--10--12--10--131210--9----11---9---11-----10--12--10--131210--|
|------------------------------------------------------------------------------|
|-777777777777777888888888888888887777777777777788888888888--------------------|
|----------------------------------------------------------\xxxxxxxxxxx/-------|
Добавлено: 08.11.2015
Другие материалы по этой песне:

Страница создана 27.02.2012
http://primanota.ru/immortal/unsilent-storms-in-the-north-abyss-chords.htm
Привет, Гость.
Предлагаем пройти революционный курс по гитаре.
Подарок от PrimaNota.Ru, забирай!