PrimaNota.ru - самый крупный в мире бесплатный архив песенных текстов, аккордов, табулатур и нот


Immortal - The Rise Of Darkness - таба, видео

Регистрация Запомнить меня
Войти через:  Facebook Google Twitter Vk Yandex Mail.ru

Immortal - The Rise Of Darkness - таба, видео

Печатать
Просмотров: 53
Авторы музыки: Abbath Doom Occulta
Авторы текста: Demonaz Doom Occulta
-------------------------------------------------------------------------------
                         The Rise Of Darkness - Immortal
-------------------------------------------------------------------------------

Tuning: D G C F A D

Intro (3x)
d|-----------------------------------|----------------------------------------|
A|-----------------------------------|----------------------------------------|
F|-----------------------------------|----------------------------------------|
C|-2----------------------8--8--8--8-|-2----------------------5-----4-----1---|
G|-2----------------------6--6--6--6-|-2------------------------3-----3-----2-|
D|-0--0--0-0-0---0--0--0--6--6--6--6-|-0--0--0-0-0---0--0--0------3-----3-----|

d|-----------------------------------|----------------------------------------|
A|-----------------------------------|----------------------------------------|
F|-----------------------------------|----------------5----5---5------5-------|
C|-2----------------------8--8--8--8-|-6---6--6--6----3----3---3------5-------|
G|-2----------------------6--6--6--6-|-4---4--4--4----3----3---3--------------|
D|-0--0--0-0-0---0--0--0--6--6--6--6-|-4---4--4--4----------------------------|

Bridge (2x)
d|-----------------------------------|-----------------------------------|
A|------3---3--3--3--3---3--3--3--3--|------5---5--5--5--5---5--5--5--5--|
F|------2---2--2--2--2---2--2--2--2--|------4---4--4--4--4---4--4--4--4--|
C|------2---2--2--2--2---2--2--2--2--|------2---2--2--2--2---2--2--2--2--|
G|-2---------------------------------|-2---------------------------------|
D|-0---------------------------------|-0---------------------------------|

d|-----------------------------------|-----------------------------------|
A|------3---3--3--3--3---3--3--3--3--|------5---5--5--5--5---5--6--5--3--|
F|------2---2--2--2--2---2--2--2--2--|------4---4--4--4--4---4--5--4--2--|
C|------2---2--2--2--2---2--2--2--2--|------2---2--2--2--2---2--3--2--0--|
G|-2---------------------------------|-2---------------------------------|
D|-0---------------------------------|-0---------------------------------|

Verse (2x)
d|-----------------------------------|-----------------------------------|
A|------3---3--3--3--3---3--3--3--3--|------5---5--5--5--5---5--5--5--5--|
F|------2---2--2--2--2---2--2--2--2--|------4---4--4--4--4---4--4--4--4--|
C|------2---2--2--2--2---2--2--2--2--|------2---2--2--2--2---2--2--2--2--|
G|-2---------------------------------|-2---------------------------------|
D|-0---------------------------------|-0---------------------------------|

d|-----------------------------------|-----------------------------------|
A|------3---3--3--3--3---3--3--3--3--|------5---5--5--5--5---5--6--5--3--|
F|------2---2--2--2--2---2--2--2--2--|------4---4--4--4--4---4--5--4--2--|
C|------2---2--2--2--2---2--2--2--2--|------2---2--2--2--2---2--3--2--0--|
G|-2---------------------------------|-2---------------------------------|
D|-0---------------------------------|-0---------------------------------|

d|-----------------------------------|-----------------------------------|
A|------3---3--3--3--3---3--3--3--3--|------5---5--5--5--5---5--5--5--5--|
F|------2---2--2--2--2---2--2--2--2--|------4---4--4--4--4---4--4--4--4--|
C|------2---2--2--2--2---2--2--2--2--|------2---2--2--2--2---2--2--2--2--|
G|-2---------------------------------|-2---------------------------------|
D|-0---------------------------------|-0---------------------------------|

d|-----------------------------------|-----------------------------------|
A|-----------------------------------|-----------------------------------|
F|------7-----7-----7-----7-----7----|------9-----9-----9-----9-----9----|
C|------5-----5-----5-----5-----5----|------7-----7-----7-----7-----7----|
G|-2----5-----5-----5-----5-----5----|-2----7-----7-----7-----7-----7----|
D|-0---------------------------------|-0----5-----5-----5-----5-----5----|

Intro (2x)

Verse (2x)

Riff 1 (2x)
Part 1 (1x)
d|-----------------------------------------------------------------------|
A|-----------------------------------------------------------------------|
F|-----------------------------------------------------------------------|
C|----9--9--9--7-7-7-----9-9-9-7-7-7-----9--9--9--7-7-7-----5-5-5-4-4-4--|
G|----10-10-10-9-9-9-----7-7-7-9-9-9-----10-10-10-9-9-9-----7-7-7-5-5-5--|
D|-0------------------0---------------0------------------0---------------|

d|-----------------------------------------------------------------------|
A|-----------------------------------------------------------------------|
F|-----------------------------------------------------------------------|
C|----9--9--9--7-7-7-----9-9-9-7-7-7------------9-----------------7------|
G|----10-10-10-9-9-9-----7-7-7-9-9-9----9-10-12---12-13----7-9-10---10-9-|
D|-0------------------0---------------2-------------------3--------------|
        
Part 2 (3x)
d|-----------------------------------------------------------------------|
A|-----------------------------------------------------------------------|
F|-----------------------------------------------------------------------|
C|----9--9--9--7-7-7-----9-9-9-7-7-7-----9--9--9--7-7-7-----5-5-5-4-4-4--|
G|----10-10-10-9-9-9-----7-7-7-9-9-9-----10-10-10-9-9-9-----7-7-7-5-5-5--|
D|-0------------------0---------------0------------------0---------------|

d|-----------------------------------------------------------------------|
A|-----------------------------------------------------------------------|
F|-----------------------------------------------------------------------|
C|----9--9--9--7-7-7-----9-9-9-7-7-7--4------------4----2------------2---|
G|----10-10-10-9-9-9-----7-7-7-9-9-9--2---2---2----2----3---3---3----3---|
D|-0------------------0---------------2---2---2----2----3---3---3----3---|

Riff 2 (1x)
d|-----------------------------------------------------|
A|-----------------------------------------------------|
F|-9---------9---9---9------10--------10--12--12--12---|
C|-9---------9---9---9------10--------10--12--12--12---|
G|-7---------7---7---7------8---------8---10--10--10---|
D|----0-0-0--------------------0-0-0-------------------|

d|-----------------------------------------------------|
A|-----------------------------------------------------|
F|-9---------9---9---9-------------------5-5-5-5-0-0-0-|
C|-9---------9---9---9-------------4-4-4-5-5-5-5-4-4-4-|
G|-7---------7---7---7-------5-5-5-5-5-5-3-3-3-3-3-3-3-|
D|----0-0-0------------5-5-5---------------------------|

d|-----------------------------------------------------|
A|-----------------------------------------------------|
F|-9---------9---9---9------10--------10--12--12--12---|
C|-9---------9---9---9------10--------10--12--12--12---|
G|-7---------7---7---7------8---------8---10--10--10---|
D|----0-0-0--------------------0-0-0-------------------|

d|-----------------------------------------------------|
A|-----------------------------------------------------|
F|-9---------9---9---9-------------------5-5-5-5-0-0-0-|
C|-9---------9---9---9-------4-4-4-------5-5-5-5-4-4-4-|
G|-7---------7---7---7-5-5-5-5-5-5-5-5-5-3-3-3-3-3-3-3-|
D|----0-0-0------------5-5-5---------------------------|

Chorus - Part 1 (2x)
d|--------------------------------------------------------------|
A|--------------------------------------------------------------|
F|--------------------------------------------------------------|
C|-4-4-4----4-4-4-4-4-4-4-4---7-7-7----7-7-7---6-6-6-6--6-6-6---|
G|-5-5-5----5-5-5-5-5-5-5-5---4-4-4----4-4-4---7-7-7-7--7-7-7---|
D|-7-7-7-7--7-7-7-7-7-7-7-7---5-5-5-5--5-5-5---4-4-4-4--4-4-4---|

d|--------------------------------------------------------------|
A|------------------8^--8---------------------------------------|
F|------------------7^--7--7------------------------------------|
C|-5--------5-------5^-------5--------------2-2-2--2--2--2--2---|
G|-5--5--5--5-------5^----------------3-3-3--------3--3--3--3---|
D|-3--3--3--3-------------------5-5-5--------------3--3--3--3---|

d|--------------------------------------------------------------|
A|--------------------------------------------------------------|
F|--------------------------------------------------------------|
C|-4-4-4----4-4-4-4-4-4-4-4---7-7-7----7-7-7---6-6-6-6--6-6-6---|
G|-5-5-5----5-5-5-5-5-5-5-5---4-4-4----4-4-4---7-7-7-7--7-7-7---|
D|-7-7-7-7--7-7-7-7-7-7-7-7---5-5-5-5--5-5-5---4-4-4-4--4-4-4---|

d|--------------------------------------------------------------|
A|------------------8^--8---------------------------------------|
F|------------------7^--7--7------------------------------------|
C|-5--------5-------5^-------5-------2--2----0-0-0-0-0-0-0-0----|
G|-5--5--5--5-------5^----------3----3--3----2-2-2-2-2-2-2-2----|
D|-3--3--3--3-------------------5----5--5----3-3-3-3-3-3-3-3----|

Chorus - Part 2 (2x)
d|-----------------------------------------------------------------|
A|-----------------------------------------------------------------|
F|-----------------------------------------------------------------|
C|-4---------------4---------------7---------------6---------------|
G|-5---------------5---------------4---------------7---------------|
D|-7-7-7-7-7-7-7-7-7-7-7-7-7-7-7-7-5-5-5-5-5-5-5-5-4-4-4-4-4-4-4-4-|

d|--------------------------------------------------------------|
A|------------------8^--8---------------------------------------|
F|------------------7^--7--7------------------------------------|
C|-5--------5-------5^-------5--2---2---2---2---2---2---2---2---|
G|-5--5--5--5-------5^----------3---3---3---3---3---3---3---3---|
D|-3--3--3--3-------------------5---5---5---5---5---5---5---5---|

d|-----------------------------------------------------------------|
A|-----------------------------------------------------------------|
F|-----------------------------------------------------------------|
C|-4---------------4---------------7---------------6---------------|
G|-5---------------5---------------4---------------7---------------|
D|-7-7-7-7-7-7-7-7-7-7-7-7-7-7-7-7-5-5-5-5-5-5-5-5-4-4-4-4-4-4-4-4-|

d|--------------------------------------------------------------|
A|------------------8^--8---------------------------------------|
F|------------------7^--7--7------------------------------------|
C|-5--------5-------5^-------5--2---2---2---2---0---0---0---0---|
G|-5--5--5--5-------5^----------3---3---3---3---2---2---2---2---|
D|-3--3--3--3-------------------5---5---5---5---3---3---3---3---|

Bridge (7x)

End (1x)
d|------------------------------|
A|------------------------------|
F|------7--7--7--7--7--7--7--7--|
C|------7--7--7--7--7--7--7--7--|
G|-2----5--5--5--5--5--5--5--5--|
D|-0----------------------------|
Добавлено: 08.11.2015
Другие материалы по этой песне:

Страница создана 22.07.2012
http://primanota.ru/immortal/the-rise-of-darkness-chords.htm
Привет, Гость.
Предлагаем пройти революционный курс по гитаре.
Подарок от PrimaNota.Ru, забирай!