PrimaNota.ru - самый крупный в мире бесплатный архив песенных текстов, аккордов, табулатур и нот


Immortal - Nebular Ravens Winter - текст песни, таба, видео

Регистрация Запомнить меня
Войти через:  Facebook Google Twitter Vk Yandex Mail.ru

Immortal - Nebular Ravens Winter - текст песни, таба, видео

Печатать
Просмотров: 133
Авторы музыки: Abbath Doom Occulta
Авторы текста: Demonaz Doom Occulta
IMMORTAL-NEBULAR RAVENS WINTER from the album "Blizzard Beasts"
 (Anything who've seen them live can understand this name)

=>Lyed on the paper by "The Pastor" from somewhere in the frenches
catacombs...


RIFF A :
E|---------|----------------||
B|---------|----------------||
G|---------|----------------||
D|---------|----------------||
A|----7----|----77-66-77----||
E|---------|----------------||

Starting of the 1st solo (I can't find the end):
E|---------------------------------------------------------------||
B|---------------------------------------------------------------||
G|----12----11-12-14-12-11--12-11-9-8----9--11--12--11--9--11----||
D|---------------------------------------------------------------||
A|---------------------------------------------------------------||
E|---------------------------------------------------------------||

E|--------------------------||
B|--------------------------||
G|----9-11-12-11-9-8--etc...||
D|--------------------------||
A|--------------------------||
E|--------------------------||


RIFF B :
E|----------------------------------||------------------------------|
B|----------------------------------||------------------------------|
G|----------------------------------||------------------------------|
D|----------------------------------||------------------------------|
A|----------------------------------||------------------------------|
E|--6--7----66-77-99-1010-99-77-66--||after four times:-0-8-0-7-0-6-|
                                                          .   .   .

RIFF C :
E|-------------------------------------------||
B|-------------------------------------------||
G|-------------------------------------------||
D|-------------------------------------------||
A|----777----77-99----99-1010----77-66-55----||
E|-------------------------------------------||


RIFF D :
E|---------------------------------------------||
B|---------------------------------------------||
G|---------------------------------------------||
D|---------------------------------------------||
A|--2-5555555-2-44444444-2-5555555544444444----||
E|--0---------0----------0---------------------||
   

RIFF E (chorus) :
E|------------------------------------------------------------------||
B|------------------------------------------------------------------||
G|------------------------------------------------------------------||
D|------------------------------------------------------------------||
A|--77777777--99999999--10101010101010--1212-1010-99--1212-1010-99--||
E|------------------------------------------------------------------||


RIFF F :
E|---------------------------------------------||
B|---------------------------------------------||
G|---------------------------------------------||
D|---------------------------------------------||
A|--5555555544445454-22-44-5555555544444444----||
E|---------------------------------------------||


=>PLAYLIST :
        Riff A x8
        Riff A x8 + 1st solo
        Riff B x8
        Riff C x8
        Riff B x4
        Riff C x4
        Riff D x2
        Riff E x4
        Riff A x8
        Riff A x8 +2nd solo (if someone knows it =>e-mail me)
        Riff B x8
        Riff C x8
        Riff D x2
        Riff E x4
        Riff F x2
        Riff A 'til the end of the tune


If you have some suggestions or corrections e-mail me: Pastor@wanadoo.fr
Добавлено: 22.03.2012
Другие материалы по этой песне:

Страница создана 22.03.2012
http://primanota.ru/immortal/nebular-ravens-winter-chords.htm
Привет, Гость.
Предлагаем пройти революционный курс по гитаре.
Подарок от PrimaNota.Ru, забирай!