PrimaNota.ru - самый крупный в мире бесплатный архив песенных текстов, аккордов, табулатур и нот


Immortal - Damned In Black - аккорды и текст, таба, бас-таба, видео

Регистрация Запомнить меня
Войти через:  Facebook Google Twitter Vk Yandex Mail.ru

Immortal - Damned In Black - аккорды и текст, таба, бас-таба, видео

Печатать
Просмотров: 194
Авторы музыки: Horgh, Abbath Doom Occulta
Авторы текста: Demonaz Doom Occulta
Damned In Black
Immortal
		   Opener: (x1)
e|--------------------------------------------------------------
B|--------------------------------------------------------------
G|--------------------------------------------------------------
D|-9-----/7-----------------------------------------------------
A|-7-----/5-9---19/9--------------------------------------------
E|----------7---17/7--------------------------------------------

Main Riff: (x2)
e|--------------------------------------------------------------
B|--------------------------------------------------------------
G|----------------12-----------------14-------------------------
D|-9-9/16--11-13--10--9-9/16--11-13--12-------------------------
A|-7-7/14--9--11------7-7/14--9--11-----------------------------
E|--------------------------------------------------------------

Riff 1: (x2)
e|--------------------------------------------------------------
B|--------------------------------------------------------------
G|--------------------------------------------------------------
D|-----------------5-5-5-5-4-4-4-4------------------------------
A|-2-2-2-2-2-2-2-2-3-3-3-3-2-2-2-2-2--2-2-2-2-2-2-2-2-----------
E|-0-0-0-0-0-0-0-0-----------------0--0-0-0-0-0-0-0-0-----------
   m m m m m m m m m m m m m m m m    m m m m m m m m

e|--------------------------------------------------------------
B|--------------------------------------------------------------
G|--------------------------------------------------------------
D|-5-5-5-5-7-7-7-7----------------------------------------------
A|-3-3-3-3-5-5-5-5-2-2------------------------------------------
E|-----------------0-0------------------------------------------
   m m m m m m m m

Repeat Main Riff: (x1)

Repeat Riff 1: (x2)

Repeat Main Riff: (x2)

Riff 2: (x4)  **Play part in () every other time through instead
		of what's before it.**
e|--------------------------------------------------------------
B|--------------------------------------------------------------
G|-12-11-12-9-11----9----12-11-12-9(14)-11----------------------
D|-10-9--10-7-9--12-7-11-10-9--10-7(12)--9-12-7-7---------------
A|---------------10----9-------------------10-5-5---------------
E|--------------------------------------------------------------
    m  m  m m  m  m m  m  m  m  m m  m   m  m    m

Riff 3: (x2)
e|--------------------------------------------------------------
B|--------------------------------------------------------------
G|-11--111111/7-11--111111-11--9--9-9-9--9/12-12--12-12-12-12---
D|--9---9-9-9/5--9---9-9-9--9--7--7-7-7--7/10-10--10-10-10-10---
A|--------------------------------------------------------------
E|--------------------------------------------------------------


e|--------------------------------------------------------------
B|--------------------------------------------------------------
G|-11--111111/7-11--111111-11--12--12-12-12--12/14-9--9-9-9-9---
D|--9---9-9-9/5--9---9-9-9--9--10--10-10-10--10/12-7--7-7-7-7---
A|--------------------------------------------------------------
E|--------------------------------------------------------------

Repeat Riff 2: (x4)

Repeat Riff 3: (x6)
e|--------------------------------------------------------------
B|-------------------10-9--------------------10-9---------------
G|--------------------------------------------------------------
D|--------------------------------------------------------------
A|-9-7-7-8-7-7-8-7-7-------9-7-7-8-7-7-8-7-7--------------------
E|-7-5-5-6-5-5-6-5-5-------7-5-5-6-5-5-6-5-5--------------------
   m m m m m m m m m   m m m m m m m m m m m   m m

e|--------------------------------------------------------------
B|-------------------9-8--------------------9-8-----------------
G|--------------------------------------------------------------
D|--------------------------------------------------------------
A|-8-6-6-7-6-6-7-6-6------8-6-6-7-6-6-7-6-6---------------------
E|-6-4-4-5-4-4-5-4-4------6-4-4-5-4-4-5-4-4---------------------
   m m m m m m m m m  m m m m m m m m m m m  m m


***Solo Plays, acoustic guitar***
e|--------------------------------------------------------------
B|--9-9-9-8-8---9-9-9-8-8---------------------------------------
G|------------9-----------9-10-10-10-10-8-8-8-8-10-10-10-10-----
D|--------------------------------------------------------------
A|--------------------------------------------------------------
E|--------------------------------------------------------------

e|--------------------------------------------------------------
B|---------------9-9-9-8-8---9-9-9-8-8--------------------------
G|-11-11-11-11-8-----------9-----------9-10-10-10-9-9-7---------
D|--------------------------------------------------------------
A|--------------------------------------------------------------
E|--------------------------------------------------------------

e|--------------------------------------------------------------
B|--------------------------------------------------------------
G|-10-10-10-9-9-7-----------------------------------------------
D|--------------------------------------------------------------
A|--------------------------------------------------------------
E|--------------------------------------------------------------


Riff 4:
e|--------------------------------------------------------------
B|-10-10-10-9------------10-10-10-9-----------------------------
G|--8--8--8-7-------------8--8--8-7-----------------------------
D|--------------------------------------------------------------
A|-------------7--7-7-7--------------7--7-7-7--7--8--8-8-8------
E|-------------5--5-5-5--------------5--5-5-5--5--6--6-6-6------
                  m m m                 m m m

e|---------------------------8~-||------------------------------
B|------------------------------||------------------------------
G|------------------------------||------------------------------
D|------------------------------||-8-8-8-9-8-6-6-6-6-7-6-5------
A|-8--8--8-8-8--8--8-8-8-9-7----||-6-6-6-7-6-4-4-4-4-5-4-3-2----
E|-6--6--6-6-6--6--6-6-6-7-5----||-------------------------0----

    **Very last slide, fast to 13 and slow down as you reach 1**
e|--------------------------------------------------------------
B|--------------------------------------------------------------
G|--------------------------------------------------------------
D|--------------------------------------------------------------
A|-------2-------4/14--------14/15/3----------------------------
E|-------0-------2/12--------12/13/1----------------------------

Repeat Main Riff: (x2)

Repeat Riff 1: (x2)

Repeat Main Riff: (x1)

Repeat Riff 1: (x2)  **Fade out**     
Добавлено: 27.09.2013
Другие материалы по этой песне:

Страница создана 05.04.2012
http://primanota.ru/immortal/damned-in-black-chords.htm
Привет, Гость.
Предлагаем пройти революционный курс по гитаре.
Подарок от PrimaNota.Ru, забирай!