PrimaNota.ru - самый крупный в мире бесплатный архив песенных текстов, аккордов, табулатур и нот


Immortal - Blashyrk Mighty Ravendark - таба, видео

Регистрация Запомнить меня
Войти через:  Facebook Google Twitter Vk Yandex Mail.ru

Immortal - Blashyrk Mighty Ravendark - таба, видео

Печатать
Просмотров: 105
e------------------------------------------------------------|
B------------------------------------------------------------|
G------------------------------------------------------------|
D--7-7-77-7-75-5-55-5---------6-6-66-67-7-77-7-75-5-55-7-5---|
A--5-5-55-5-53-3-33-3-9-9-99-94-4-44-45-5-55-5-53-3-33-5-3-7-|
E---------------------7-7-77-7-----------------------------9-|

e----------------|
B----------------|
G----------------|
D-------6-6-66-6-|
A-9-99-94-4-44-4-|
E-7-77-7---------|

e----------------------------------------------------------|
B----------------------------------------------------------|
G----3---3---34----3-3--34-3-----3---3---34----3-3----34-3-|
D---3---3---3-4---3-3--3-4-3----3---3---3-4---3-3----3-4-3-|
A--1---1---1--2--1----1--2-1---1---1---1--2--1------1--2-1-|
E-0---0---0-----0----0-------0----0---0-----0------0-------|

e---------------------------------------------------------|
B---------------------------------------------------------|
G---------------------------------------------------------|
D----444---444---444-3333---444---444---444-555-444-222---|
A-222---222---222--------222---222---222------------------|
E---------------------------------------------------------|

e---------------------------------------------------|
B---------------------------------------------------|
G---------------------------------------------------|
D----444---444---444-3333---444---444---444-555-999-|
A-222---222---222--------222---222---222------------|
E---------------------------------------------------|

this is all i know so far for this song.
i think its right... so enjoy
Добавлено: 18.06.2012
Вам также может быть интересно:
Другие материалы по этой песне:
  • Аккорды и текст

Страница создана 18.06.2012
http://primanota.ru/immortal/blashyrk-mighty-ravendark-chords.htm
Привет, Гость.
Предлагаем пройти революционный курс по гитаре.
Подарок от PrimaNota.Ru, забирай!