PrimaNota.ru - самый крупный в мире бесплатный архив песенных текстов, аккордов, табулатур и нот


Immolation - Higher Coward - текст песни, таба, видео

Регистрация Запомнить меня
Войти через:  Facebook Google Twitter Vk Yandex Mail.ru

Immolation - Higher Coward - текст песни, таба, видео

Печатать
Просмотров: 54
Уроки эстрадного вокала в Санкт-Петербурге
-------------------------------------------------------------------------------
IMMOLATION-Higher Coward  from Close to a World Below 2000 METAL BLADE
-------------------------------------------------------------------------------
Tabbed by:NihilView

E-mail:

Tuning:C STANDARD  CFA#D#GC




                   
|--------------------------------------------------------------------------------|
|--------------------------------------------------------------------------------| 
|----------------------------0--0--0--0----------------0----12--12--12-----------| VERSE
|--2--2----3---3--3---3------0--0--0--0----------------0----11--11--11-----------|
|--2--2----x---x--x---x------0--0--0--0----6-----------0----10--10--10-----------|
|--0--0----1---1--1---1--------------------5----------------9---9---9------------|



                 
|-----------------------------------------------------------------------------------|
|-----------------------------------------------------------------------------------|
|-----------------------------------------------------------------------------------|
|----------6-6--6--6--6--6-6--6----------0------------------------------------------|  BRIDGE
|---0------7-7--7--7--7--7-7--7----------1--1--1-1-1-1-1-1-1--------------4p-0------|
|---0------8-8--8--8--8--8-8--8----------2--2--2-2-2-2-2-2-2----5-5--1-1------------|



|--------------------------------------------------------------------------------------|
|--------------------------------------------------------------------------------------|
|--------------------------------------------------------------------------------------|
|--7-7--7--7-7-7-7-7---2--2--2-2--2-2--3------5--5--5-5-5--5-5-5---4-4-4-4-4-4-4--4----|
|--8-8--8--8-8-8-8-8---3--3--3-3--3-3--3------6--6--6-6-6--6-6-6---5-5-5-5-5-5-5--5----|
|---------------------------------------------7--7--7-7-7--7-7-7---6-6-6-6-6-6-6--6----|



!--------------------------------------------------------------------!
!------------12------11-------------------12----11-------------------! FILL 1 
!--9---------x-------x------------9-------x-----x--------------------!
!--x---------9-------8------------x-------9-----8--------------------!  PRE-CHORUS
!--7------------------------------7----------------------------------!
!--------------------------------------------------------------------!





|------------------------------------------------------------------------------|
|------------------------------------------------------------------------------|
|------------------------------------------------------------------------------| CHORUS
|-----------------------------------1------------------------------------------|
|-----------------------------------1------------------------------------1-----|
|--0-0--0--0--0----0------0-0-0--0--0-----0-0-0---0-0---0-----0-0-0-0-0--0-----|

P.M.------------------------------        ------------------------------

|---------------------------------------------------------------------------|
|---------------------------------------------------------------------------|
|---------------------------------------------------------------------------|
|-------------------------------9--/-7-------9--/-7-------------------------|
|-----------------1------------10-/--8------10-/--8-------------------------|
|--0-0--0-0--0-0--0---------------------------------------------------------|
                                 sl.           sl.



************************************
I P.M  palm muting
| /   slide up
| \   slide down
| h   hammer-on
| p   pull-off
| ~   vibrato
| +   harmonic
| x   Mute note
| b   Bend
| pb  Pre-bend
| br  Bend release
| pbr Pre-bend release
| brb Bend release bend

************************************
Добавлено: 15.12.2015
Другие материалы по этой песне:
  • Аккорды и текст

Страница создана 05.03.2012
http://primanota.ru/immolation/higher-coward-chords.htm
Привет, Гость.
Предлагаем пройти революционный курс по гитаре.
Подарок от PrimaNota.Ru, забирай!