PrimaNota.ru - самый крупный в мире бесплатный архив песенных текстов, аккордов, табулатур и нот


Imagine Dragons - Second Chances - таба, видео

Регистрация Запомнить меня
Войти через:  Facebook Google Twitter Vk Yandex Mail.ru

Imagine Dragons - Second Chances - таба, видео

Печатать
Просмотров: 227
Intro
E|-------------------|
B|---------------7---|
G|-8---8---6-8----8--|
D|6-8-6-6-----8-6----| x2
A|-------------------|
E|-------------------|

Verse
E|-------------|
B|7------------|
G|-4-4-4-4-6-4-|
D|-------------|  play over and over
A|-------------|
E|-------------|

Chorus
E|------------7-9-------------7-9-|
B|9-7-----9-7-9-7--9------9-7-9-7-|
G|---8-6------------8-6-4---------|
D|--------------------------------|
A|--------------------------------|
E|--------------------------------|

Transition from chorus to verse
E|7-6----|
B|---9-7-|
G|-------|
D|-------|
A|-------|
E|-------|

Bridge
E|-7-7-6-7-11-|
B|9-----9-----|
G|------------|
D|------------|
A|------------|
E|------------|

Outro
E|4-7-7-9-6-|
B|0-0-0-0-0-|
G|4-8-8-8-6-|
D|----------|
A|----------|
E|----------|

End on
E|7-
B|--
G|--
D|--
A|--
E|--
Добавлено: 19.02.2016
Другие материалы по этой песне:
  • Аккорды и текст

Страница создана 19.02.2016
http://primanota.ru/imagine-dragons/second-chances-chords.htm
Привет, Гость.
Предлагаем пройти революционный курс по гитаре.
Подарок от PrimaNota.Ru, забирай!