PrimaNota.ru - самый крупный в мире бесплатный архив песенных текстов, аккордов, табулатур и нот


Imagine Dragons - I Was Me - таба, видео

Регистрация Запомнить меня
Войти через:  Facebook Google Twitter Vk Yandex Mail.ru

Imagine Dragons - I Was Me - таба, видео

Печатать
Просмотров: 521
Авторы музыки: Imagine Dragons

-------------------------------------------------------------------------------
                             I Was Me - Imagine Dragons
-------------------------------------------------------------------------------
Tabbed by:GarrettPaquette
 This is an amazing song by Imagine Dragons, written about the Syrian refugee crisis. All 
proceeds went towards their cause... 
                                           
Tuning:Drop D                              
                                           
Intro:                                     

            A        A        G#           G#   
e|---------------------------------------------------------------------------|
B|----------2-------2--------------------------------------------------------|
G|--------2------2-----------------------------------------------------------|
D|------2------2--------------6------------6---------------------------------|
A|----0------0-------------4------------4------------------------------------|
D|---------------------0-6----------0-6--------------------------------------|

Verse 1:   A                                  G#   
e|------------------------------------------------------------------------------|
B|---------2--------2--------2--------2-----------------------------------------|
G|-------2--------2--------2--------2-------------------------------------------|
D|-----2--------2--------2--------2-----2--------6--------6--------6--------6---|
A|---0--------0--------0--------0--------------4--------4--------4--------4---4-|
D|-----------------------------------------0-6------0-6------0-6------0-6-------|

       D/G                                   G#
e|-----------------------------------------------------------------------------|
B|-----------------------------------------------------------------------------|
G|-----------7---------7---------7--------7------------------------------------|
D|---------7---7-----7---7-----7---7----7---7--------6-------6-------6-------6-|
A|-------5---------5---------7--------7------------4-------4-------4-------4---|
D|-----5---------5---------5--------5----------0-6-----0-6-----0-6-----0-6-----|

Chorus: (strumming : ↓ ↓ ↑↓↑) 
      A      G#       F#      E
e|-----------------------------0----|
B|----2------------------------0----|
G|----2------------------------1----|X
D|----2------6--------4--------2----|
A|----0------4--------2--------2----|
D|-----------6--------4--------2----|
                                                  
Verse 2:
           A                                              
e|---------------------------------------------------------------|
B|---------2-2---2------2-2--2-------2-2---2-----2-2---2---------|
G|-------2-----2------2----2------2------2-----2-----2-----------|
D|-----2------------2----------2-------------2-------------------|
A|---0------------0----------0-------------0---------------------|
D|---------------------------------------------------------------|

      G#
e|-----------------------------------------------------------|
B|-----------------------------------------------------------|
G|-----------------------------------------------------------|
D|----------6-6--6-------6-6---6-------6-6---6-------6-6---6-|
A|--------4----4-------4-----4-------4-----4-------4-----4---|
D|----0-6----------0-6-----------0-6-----------0-6-----------|


           A                                              
e|---------------------------------------------------------------|
B|---------2-2---2------2-2--2-------2-2---2-----2-2---2---------|
G|-------2-----2------2----2------2------2-----2-----2-----------|
D|-----2------------2----------2-------------2-------------------|
A|---0------------0----------0-------------0---------------------|
D|---------------------------------------------------------------|

      G#
e|-----------------------------------------------------------|
B|-----------------------------------------------------------|
G|-----------------------------------------------------------|
D|----------6-6--6-------6-6---6-------6-6---6-------6-6---6-|
A|--------4----4-------4-----4-------4-----4-------4-----4---|
D|----0-6----------0-6-----------0-6-----------0-6-----------|



       A                                               G#
e|--------------------------------------------------------------------------------------|
B|--------------------------------------------------------------------------------------|
G|--------------------------------------------------------------------------------------|
D|--------7-7-7----7-7-7-----7-7-7-----7-7-7--------6-6-6-----6-6-6-----6-6-6-----6-6-6-|
A|-------5---5----5---5-----5---7-----5---5-------4----4-----4---4-----4---4-----4---4--|
D|----0-7------0-7-------0-7-------0-7---------0-6--------0-6-------0-6-------0-6-------|

Chorus

Bridge: 
          G#           A         ↑ ↓ ↑
E|-----------------------------------------------|
B|-----------------------------------------------|
G|-----------------------------------------------|X3 (it does something different on the 4th time,
D|--------6--6--6-----7--7--7----7-7-7-----------|     I cant figure it out at the moment.)
A|--------4--4--4-----5--5--5----5-5-5-----------|
D|--------6--6--6-----7--7--7----7-7-7-----------|



Chorus


************************************

| /   slide up
| \   slide down
| h   hammer-on
| p   pull-off
| ~   vibrato
| +   harmonic
| x   Mute note
| b   Bend
| pb  Pre-bend
| br  Bend release
| pbr Pre-bend release
| brb Bend release bend

************************************
Добавлено: 19.02.2016
Вам также может быть интересно:
Другие материалы по этой песне:
  • Аккорды и текст

Страница создана 19.02.2016
http://primanota.ru/imagine-dragons/i-was-me-chords.htm
Привет, Гость.
Предлагаем пройти революционный курс по гитаре.
Подарок от PrimaNota.Ru, забирай!