PrimaNota.ru - самый крупный в мире бесплатный архив песенных текстов, аккордов, табулатур и нот


Imagine Dragons - I Need A Minute - аккорды и текст, видео

Регистрация Запомнить меня
Войти через:  Facebook Google Twitter Vk Yandex Mail.ru

Imagine Dragons - I Need A Minute - аккорды и текст, видео

Печатать
Просмотров: 829
I Need A Minute
Imagine Dragons
Chords and tabs for the song "I Need a Minute" by Imagine Dragons.
http://www.youtube.com/watch?v=1dl2XK5Jcew for reference.

I'm new to writing tabs and chords, so let me know if you have any comments or feedback. 
I'm happy to fix any issues you find!

Chords: G, D/F#, Em, C

Intro/Riff
   G                                      D/F#
e|---------10-10-----------------10-10----------------10-10------------------10-10-------|
B|---12-13-------13-12----12-13-------13-12-----12-13-------13-12------12-13-------13-12-|
G|---------------------------------------------------------------------------------------|
D|---------------------------------------------------------------------------------------|
A|-10------------------10----------------------------------------------------------------|
E|-------------------------------------------10--------------------10--------------------|

   Em                                        C
e|---------10-10-----------------10-10----------------10-10------------------10-10-------|
B|---12-13-------13-12----12-13-------13-12-----12-13-------13-12------12-13-------13-12-|
G|---------------------------------------------------------------------------------------|
D|---------------------------------------------------------------------------------------|
A|---------------------------------------------------------------------------------------|
E|-12------------------12---------------------8--------------------8---------------------|

Bridge (for acoustic versions, same notes one octave lower):
e|--------------------------------------------------------------------------|
B|--10-10--12---------------------------------12----------------------------|
G|-----------12----x12------12p11p9-----x9----------------------------------|
D|--------------------------------------------------------------------------|
A|--------------------------------------------------------------------------|
E|--------------------------------------------------------------------------|

Bridge (electric/cutaways)):
e|-17--17--19--15----------15p14p12----------------12s19--------------------|
B|--------------------------------------------------------------------------|
G|-----------------x12------------------x9----------------------------------|
D|--------------------------------------------------------------------------|
A|--------------------------------------------------------------------------|
E|--------------------------------------------------------------------------|



G
Welcome to the land of fire
D/F#
I hope you brought the right attire,
Em                                   C
The crippled man is waiting at the door

G
He said "your eyes are much too bright"
D/F#
The things you say are never right,
Em                                      C
The sins of all the world lie on your head

            G
So when you see me look the other way
        D/F#
Cause -ohoh- lately all I do is play
          Em                                  C
All the glasses in the world say "come with me..."

G               D/F#
I need a minute to get my head straight
Em              C
Just to hit it before it's too late
G                          D/F#
Innocent, considering my middle name is 'shake my body'
Em                           C
Take a seat it's glittering, I shake you in, I shake my body

Intro/Riff

G
Welcome to the land of fail
D/F#
I hope you brought your soul for sale
Em                                      C
The greeter's still at home I think he died

G
The land of smash and fairy tale
D/F#
The truth of life is close to hell
Em                                      C
The best you'll be is nearly dead or failed

G
So when you see me look the other way
D/F#
Cause lately all I do is say
Em                                            C
These the plans I make believe all come with me

G               D/F#
I need a minute to get my head straight
Em              C
Just to hit it before it's too late
G                          D/F#
Innocent, considering my middle name is 'shake my body'
Em                           C
Take a seat it's glittering, I shake you in, I shake my body

Bridge (riff/chords)
G     D/F#                       Em            C
        Oh, perhaps it's all a dream and make believe
G           D/F#                            Em      C
   Oh, the last of all my dreams but still leave    me

G               D/F#
I need a minute to get my head straight
Em              C
Just to hit it before it's too late
G                          D/F#
Innocent, considering my middle name is 'shake my body'
Em                           C
Take a seat it's glittering, I shake you in, I shake my body
Добавлено: 27.07.2013
Другие материалы по этой песне:
  • Аккорды и текст

Страница создана 27.07.2013
http://primanota.ru/imagine-dragons/i-need-a-minute-chords.htm
Привет, Гость.
Предлагаем пройти революционный курс по гитаре.
Подарок от PrimaNota.Ru, забирай!