PrimaNota.ru - самый крупный в мире бесплатный архив песенных текстов, аккордов, табулатур и нот


Imaginary Friend - Wherever You Go - таба, видео

Регистрация Запомнить меня
Войти через:  Facebook Google Twitter Vk Yandex Mail.ru

Imaginary Friend - Wherever You Go - таба, видео

Печатать
Просмотров: 62
-----------------------------------------------------------------------------
                    WHEREVER YOU GO - Imaginary Friend
-----------------------------------------------------------------------------

 This tab is for the EP verison. It has a different tuning and a different picking 
pattern in the verses/pre-chorus and it has a
 bridge section which the YT version doesn't have.

I will post the YT version soon.
Tuning: Capo 6

D|-------3---2--------------------------------------------------------|
A|---------------0--3------1p0----------------------------------------|
F|---------------------0h2-----2p0-------4---2---0-0------------------|
C|---------------------------------2----------------------------------|
G|-------------------------------------------------3---3---3---3------|
D|-3---3---3---3---3---3---3---3---0---0---0---0----------------------|


D|-------3---2--------------------------------------------------------|
A|---------------0--3------1p0----------------------------------------|
F|---------------------0h2-----2p0-------4---2---0-0------------------|
C|---------------------------------2----------------------------------|
G|-------------------------------------------------3---3---3---3------|
D|-3---3---3---3---3---3---3---3---0---0---0---0----------------------|

Verse: (You stare....)
D|--------------------------------------------------------------------|
A|-----------0---------------0---------------0---------------0--------|
F|-------0-------0-------0-------0-------0-------0-------0-------0----| x2
C|--------------------------------------------------------------------| 
G|---------------------------------3---3---3---3---3---3---3---3------|
D|-3---3---3---3---3---3---3---3--------------------------------------|

Pre-Chorus: (You waste all....)
D|--------------------------------------------------------------------|
A|-----------0---------------0---------------0---------------0--------|
F|-------0-------0-------0-------0-------0-------0-------0-------0----| x2
C|--------------------------------------------------------------------|
G|-2---2---2---2---3---3---3---3---5---5---5---5---5---5---5---5------|
D|--------------------------------------------------------------------|

Chorus: (You can't fight the snow....)
D|-------3---2--------------------------------------------------------|
A|---------------0--3------1p0----------------------------------------|
F|---------------------0h2-----2p0-------4---2---0-0------------------|
C|---------------------------------2----------------------------------|
G|-------------------------------------------------3---3---3---3------|
D|-3---3---3---3---3---3---3---3---0---0---0---0----------------------|


D|-------3---2--------------------------------------------------------|
A|---------------0--3------1p0----------------------------------------|
F|---------------------0h2-----2p0-------4---2---0-0-----0------------|
C|---------------------------------2----------------------------------|
G|-------------------------------------------------3---3---3---3------|
D|-3---3---3---3---3---3---3---3---0---0---0---0----------------------|

D|----------------|
A|-----------0----|
F|-------0------0-|
C|----------------|
G|-3---3---3---3--|
D|----------------|

Verse: (Come home....)
D|--------------------------------------------------------------------|
A|-----------0---------------0---------------0---------------0--------|
F|-------0-------0-------0-------0-------0-------0-------0-------0----| x2
C|--------------------------------------------------------------------| 
G|---------------------------------3---3---3---3---3---3---3---3------|
D|-3---3---3---3---3---3---3---3--------------------------------------|

Pre-Chorus: (You waste all....)
D|--------------------------------------------------------------------|
A|-----------0---------------0---------------0---------------0--------|
F|-------0-------0-------0-------0-------0-------0-------0-------0----| x2
C|--------------------------------------------------------------------|
G|-2---2---2---2---3---3---3---3---5---5---5---5---5---5---5---5------|
D|--------------------------------------------------------------------|

Chorus: (You can't fight the snow....)
D|-------3---2--------------------------------------------------------|
A|---------------0--3------1p0----------------------------------------|
F|---------------------0h2-----2p0-------4---2---0-0------------------|
C|---------------------------------2----------------------------------|
G|-------------------------------------------------3---3---3---3------|
D|-3---3---3---3---3---3---3---3---0---0---0---0----------------------|


D|-------3---2--------------------------------------------------------|
A|---------------0--3------1p0----------------------------------------|
F|---------------------0h2-----2p0-------4---2---0-0-----0------------|
C|---------------------------------2----------------------------------|
G|-------------------------------------------------3---3---3---3------|
D|-3---3---3---3---3---3---3---3---0---0---0---0----------------------|

D|----------------|
A|-----------0----|
F|-------0------0-|
C|----------------|
G|-3---3---3---3--|
D|----------------|

Bridge: (Oh....)
D|--------------------------------------------------------------------|
A|-----------0---------------0---------------0---------------0--------|
F|---0---0-------0---0---0-------0---0---0-------0---0---0-------0----| x4
C|--------------------------------------------------------------------| 
G|---------------------------------3---3---3---3---5---5---5---5------|
D|-3---3---3---3---3---3---3---3--------------------------------------|


Outro: (You can't fight the snow....)
D|-------3---2--------------------------------------------------------|
A|---------------0--3------1p0----------------------------------------|
F|---------------------0h2-----2p0-------4---2---0-0------------------|
C|---------------------------------2----------------------------------|
G|-------------------------------------------------3---3---3---3------|
D|-3---3---3---3---3---3---3---3---0---0---0---0----------------------|

D|-------3---2--------------------------------------------------------|
A|---------------0--3------1p0----------------------------------------|
F|---------------------0h2-----2p0-------4---2---0-0------------------|
C|---------------------------------2----------------------------------|
G|-------------------------------------------------3---3---3---3------|
D|-3---3---3---3---3---3---3---3---0---0---0---0----------------------|

D|-------3---2--------------------------------------------------------|
A|---------------0--3------1p0----------------------------------------|
F|---------------------0h2-----2p0-------4---2---0-0------------------|
C|---------------------------------2----------------------------------|
G|-------------------------------------------------3---3---3---3------|
D|-3---3---3---3---3---3---3---3---0---0---0---0----------------------|

D|-------3---2--------------------------------------------------------|
A|---------------0--3------1p0----------------------------------------|
F|---------------------0h2-----2p0-------4---2---0-0------------------|
C|---------------------------------2----------------------------------|
G|-------------------------------------------------3------------------|
D|-3---3---3---3---3---3---3---3---0---0---0---0----------------------|
Добавлено: 30.11.2013
Другие материалы по этой песне:
  • Аккорды и текст

Страница создана 06.11.2013
http://primanota.ru/imaginary-friend/wherever-you-go-chords.htm
Привет, Гость.
Предлагаем пройти революционный курс по гитаре.
Подарок от PrimaNota.Ru, забирай!