PrimaNota.ru - самый крупный в мире бесплатный архив песенных текстов, аккордов, табулатур и нот


Imaginary Friend - Comes And Goes - аккорды и текст, видео

Регистрация Запомнить меня
Войти через:  Facebook Google Twitter Vk Yandex Mail.ru

Imaginary Friend - Comes And Goes - аккорды и текст, видео

Печатать
Просмотров: 257
Уроки эстрадного вокала в Санкт-Петербурге
Comes And Goes
Imaginary Friend
-----------------------------------------------------------------------------
                        COMES AND GOES - Imaginary Friend
-----------------------------------------------------------------------------

This song is amazing and super easy to play! 

Capo 3

Chords Used:
C    x32010
G    320000
Am   x02210

TAB: (Same picking pattern all the way through the song)
   C                               G
e|-------------------------------------------------------------------|
B|-------------------------------------------------------------------|
G|---0---0---0---0---0---0---0---0---0---0---0---0---0---0---0---0---|
D|---2---2---2---2---2---2---2---2---0---0---0---0---0---0---0---0---|
A|-3---3---3---3---3---3---3---3-------------------------------------|
E|---------------------------------3---3---3---3---3---3---3---3-----|
   Am                              G
e|-------------------------------------------------------------------|
B|-------------------------------------------------------------------|
G|---2---2---2---2---2---2---2---2---0---0---0---0---0---0---0---0---|
D|---2---2---2---2---2---2---2---2---0---0---0---0---0---0---0---0---|
A|-0---0---0---0---0---0---0---0-------------------------------------|
E|---------------------------------3---3---3---3---3---3---3---3-----|


Intro: C

Verse:
 C                                 G
 Late in June, everybody seemed to leave the room
                    Am
 And you were all I saw
           G
 A bolt in love


Verse:
 C                                     G
 On the bridge, hiding where the water never hit
                    Am
 You told me not to try
            G
 And I knew why


Pre-Chorus:
         Am
 But you came around
                      G
 It was hard enough to talk you down
                  Am
 Was it worth the toll
                            G
 Or was it too much for the role?


Chorus:
              C    G
 It comes and goes
            C    G   
 Before you know
              C    G
 It comes and goes
           C     G
 And Paris knows


Verse:
 C                             G
 I replay everything I said to you that day
                          Am
 And I was wrong from the start
                   G
 And that's what's hard


Pre-Chorus:
         Am
 But you always knew
                      G
 It was never love to you
                Am
 We would leave alone
                           G
 We would live in separate homes


Chorus:
                  C    G
 Oh, it comes and goes
            C    G
 Before you know 
              C    G
 It comes and goes
           C     G
 And Paris knows


Outro:
 C   G
 Oh
 C   G (one strum on G to end)
 Oh
Добавлено: 28.11.2013
Другие материалы по этой песне:
  • Аккорды и текст

Страница создана 28.11.2013
http://primanota.ru/imaginary-friend/comes-and-goes-chords.htm
Привет, Гость.
Предлагаем пройти революционный курс по гитаре.
Подарок от PrimaNota.Ru, забирай!