PrimaNota.ru - самый крупный в мире бесплатный архив песенных текстов, аккордов, табулатур и нот


Ima - Laisse Moi Taimer - таба, видео

Регистрация Запомнить меня
Войти через:  Facebook Google Twitter Vk Yandex Mail.ru

Ima - Laisse Moi Taimer - таба, видео

Печатать
Просмотров: 160
    laisse moi t'aimer ecrit par Ima

    écrit en tablature par Steve Morin

    E B G D A D


 |               |               |               |                
|5---------------5---------------4---------------4---------------|
|--------7---------------7---------------5---------------5-------|
|------6---6---------------6-----------4---4---------------4-----|
|----------------------------------------------------------------|
|----------------------------------------------------------------|
|4-------------------------------4-------------------------------|
 
 |               |               |               |                
|2---------------2---------------0---------0-----0---------------|
|--------2---------------2---------------3-----------------------|
|------2---2---------------2-----------2-------------------------|
|--------------------------------0-------------------------------|
|----------------------------------------------------------------|
|4---------------------------------------------------------------|
 
 |               |               |               |                
|----------------2-------------------------------2---------------|
|5-----------------------2-------2h4---------------------4-------|
|--------2-----------------2-------------2-----------------2-----|
|----------2-----------2-------------------4---------------------|
|4-------------------------------2-------------------------------|
|----------------------------------------------------------------|
 
 |               |               |               |                
|--------5h--------------2-------4-------------------------------|
|3---------------3-----------------------------------------------|
|------4---4-----------4---4-------------------------------------|
|2-------------------------------2-------------------------------|
|----------------------------------------------------------------|
|----------------------------------------------------------------|
 
 |               |               |               |                
|----------------2-------------------------------4---------------|
|--------2---------------2-2-------------3---------------3-------|
|------2---2-----------2---2-----------4---4-----------4---4-----|
|----------------------------------------------------------------|
|----------------------------------------------------------------|
|4-------------------------------6-------------------------------|
 
 |               |               |               |                
|----------------5-----------------------5-----------------------|
|----------------------------------------------------------------|
|--------6---------------6-7-----6-----6-------------------6-----|
|------7---7-------------7-7-----7---------7-----------7---------|
|0-------------------------------0---------------4---------------|
|----------------------------------------------------------------|
 
 |               |               |               |                
|--------0-------2-------0---------------0-------2---------------|
|------------------------------------------------------3---------|
|------2---2-----------2---2-----------2---2---------------------|
|0-------------------------4-----0-------------------------------|
|----------------------------------------------------------------|
|----------------------------------------------------------------|
 
 |               |               |               |                
|----------------2-------------------------------2---------------|
|--------5---------------5-5-------------5-------------5---------|
|------2---2-----------2---2-----------2---2---------------------|
|----------------------------------------------------------------|
|4-------------------------------4-------------------------------|
|----------------------------------------------------------------|
 
 |               |               |               |                
|----------------4-----------------------------------------------|
|--------5---------------5---------------3-------3---------------|
|------4---4-----------4---4-----------2---4---------------------|
|2-------------------------------2-----------------------2-------|
|----------------------------------------------------------------|
|----------------------------------------------------------------|
 
 |               |               |               |                
|------------------------------------------------2---------------|
|----------2---------------2---------------2---------------------|
|--------2---------------2---------------2-----------------------|
|------2---------------2---------------2-------------------------|
|0---------------------------------------------------------------|
|----------------6---------------4-------------------------------|
 
 |               |               |               |                
|----------------2-------------------------------2---------------|
|----------2-----------------------------4-----------------------|
|--------2-----------------------------4---2---------------------|
|------4---------------------------------------------------------|
|2-------------------------------2-------------------------------|
|----------------------------------------------------------------|
 
 |               |               |               |                
|4---------------------------------------------------------------|
|5-------------------------------5---------------3---------------|
|4-------------------------------4---------------4---------------|
|2-------------------------------2---------------3---------------|
|----------------------------------------------------------------|
|----------------------------------------------------------------|
 
 |               |               |               |                
|----------------2-----------------------------------------------|
|--------2-------------2-------------------------9---------------|
|----------2-------------------------------------------9---------|
|----------------------------------------9-----------------------|
|--------------------------------------7-------------------------|
|4-------------------------------6-------------------------------|
 
 |               |               |               |                
|----------------5-----------------------5---------------5-------|
|--------5h7-------------------------------5---------------------|
|------------------------6-7-------------------------------------|
|------------------------7-7-------------------------------2-----|
|0-------------------------------0---------------4---------------|
|----------------------------------------------------------------|
 
 |               |               |               |                
|--------0-------2-------0---------------0-------2---------------|
|------------------------------------------------------3---------|
|------2---2-----------2---2-----------2---2---------------------|
|0-------------------------4-----0-------------------------------|
|----------------------------------------------------------------|
|----------------------------------------------------------------|
 
 |               |               |               |                
|----------------2-------------------------------2---------------|
|--------5---------------5-5-------------5-------------5---------|
|------2---2-----------2---2-----------2---2---------------------|
|----------------------------------------------------------------|
|4-------------------------------4-------------------------------|
|----------------------------------------------------------------|
 
 |               |               |               |                
|----------------4-----------------------------------------------|
|--------5---------------5---------------3-------3---------------|
|------4---4-----------4---4-----------2---4---------------------|
|2-------------------------------2-----------------------2-------|
|----------------------------------------------------------------|
|----------------------------------------------------------------|
 
 |               |               |               |                
|------------------------------------------------2---------------|
|----------2---------------2---------------2---------------------|
|--------2---------------2---------------2-----------------------|
|------2---------------2---------------2-------------------------|
|0---------------------------------------------------------------|
|----------------6---------------4-------------------------------|
 
 |               |               |               |                
|----------------2-------------------------------4---------------|
|--------2---------------2---------------5---------------5-------|
|----------2-----------2---2-----------4---4-----------4---4-----|
|------4-------------------------2-------------------------------|
|2---------------------------------------------------------------|
|----------------------------------------------------------------|
 
 |               |               |               |                
|------------------------------------------5---------------------|
|------2-2---2h3---3---3-----------------------------------------|
|------2-2---2-----------------------2---------------------------|
|------2-2---2-0-------------------------------------------------|
|0-------------------------0-------------------------------------|
|----------------------------------------------------------------|
 
 |               |               |               |                
|----------------4-------------------------------4---------------|
|--------5---------------5---------------5---------------5-------|
|----------4---------------4---------------4-----------4---4-----|
|2-------------------------------2-------------------------------|
|----------------------------------------------------------------|
|----------------------------------------------------------------|
 
 |               |               |               |                
|5---------------5---------------5---------------5---------------|
|--------5---------------5---------------5---------------5-------|
|----------2---------------2-----------2---2---------------2-----|
|2-------------------------------2-------------------------------|
|----------------------------------------------------------------|
|----------------------------------------------------------------|
 
 |               |               |               |                
|----------------4-------------------------------4---------------|
|--------5---------------5---------------5---------------5-------|
|----------4---------------4---------------4-----------4---4-----|
|2-------------------------------2-------------------------------|
|----------------------------------------------------------------|
|----------------------------------------------------------------|
 
 |               |               |               |                
|5---------------5---------------5---------------5---------------|
|--------5---------------5---------------5---------------5-------|
|----------2---------------2-----------2---2---------------2-----|
|2-------------------------------2-------------------------------|
|----------------------------------------------------------------|
|----------------------------------------------------------------|
 
 |               |               |               |                
|------------------------2---------------------------------------|
|--------4-------4---------4-------------4-------4---------------|
|----------2-------------------------------2---------------------|
|----------4-------------------------------4---------------------|
|2-------------------------------2-------------------------------|
|----------------------------------------------------------------|
 
 |               |               |               |                
|----------------4-------5h4-----4-------------------------------|
|----------5-----------------------------------------------------|
|--------4-------------------------------------------------------|
|2-------------------------------2-------------------------------|
|----------------------------------------------------------------|
|----------------------------------------------------------------|
 
 |               |               |               |                
|----------------2-------------------------------4---------------|
|--------2---------------2-2-------------3---------------3-------|
|------2---2-----------2---2-----------4---4-----------4---4-----|
|----------------------------------------------------------------|
|----------------------------------------------------------------|
|4-------------------------------6-------------------------------|
 
 |               |               |               |                
|----------------5-----------------------5-----------------------|
|----------------------------------------------------------------|
|--------6-----------6---6-7-----6-----6-------------------6-----|
|------7---7---------7---7-7-----7---------7-----------7---------|
|0-------------------------------0---------------4---------------|
|----------------------------------------------------------------|
 
 |               |               |               |                
|--------0-------2-------0---------------0-------2---------------|
|------------------------------------------------------3---------|
|------2---2-----------2---2-----------2---2---------------------|
|0-------------------------4-----0-------------------------------|
|----------------------------------------------------------------|
|----------------------------------------------------------------|
 
 |               |               |               |                
|----------------2-------------------------------2---------------|
|--------5---------------5-5-------------5-------------5---------|
|------2---2-----------2---2-----------2---2---------------------|
|----------------------------------------------------------------|
|4-------------------------------4-------------------------------|
|----------------------------------------------------------------|
 
 |               |               |               |                
|----------------4-----------------------------------------------|
|--------5---------------5---------------3-------3---------------|
|------4---4-----------4---4-----------2---4---------------------|
|2-------------------------------2-----------------------2-------|
|----------------------------------------------------------------|
|----------------------------------------------------------------|
 
 |               |               |               |                
|------------------------------------------------2---------------|
|----------2---------------2---------------2---------------------|
|--------2---------------2---------------2-----------------------|
|------2---------------2---------------2-------------------------|
|0---------------------------------------------------------------|
|----------------6---------------4-------------------------------|
 
 |               |               |               |                
|----------------2-------------------------------2---------------|
|----------2-----------------------------4-----------------------|
|--------2-----------------------------4---2---------------------|
|------4---------------------------------------------------------|
|2-------------------------------2-------------------------------|
|----------------------------------------------------------------|
 
 |               |               |               |                
|----------------4-----------------------------------------------|
|--------3-------3---------------------2-2-----2h3---------------|
|------4---4-----------------------------2-----2-----------2-----|
|2-------------------------2-------------2-----2h4---4-----------|
|--------------------------------0-------0-----------------------|
|----------------------------------------------------------------|
 
 |               |                
|--------------------------------|
|--------------------------------|
|------------2-------------------|
|------2-------------------------|
|0-------------------------------|
|--------------------------------|
 
 |               |               |               |                
|5---------------5---------------4---------------4---------------|
|--------7---------------7---------------5---------------5-------|
|------6---6---------------6-----------4---4---------------4-----|
|----------------------------------------------------------------|
|----------------------------------------------------------------|
|4-------------------------------4-------------------------------|
 
 |               |               |               |                
|2---------------2---------------0---------0-----0---------------|
|--------2---------------2---------------3-----------------------|
|------2---2---------------2-----------2-------------------------|
|--------------------------------0-------------------------------|
|----------------------------------------------------------------|
|4---------------------------------------------------------------|
 
 |               |               |               |                
|----------------2-------------------------------2---------------|
|5-----------------------2-------2h4---------------------4-------|
|--------2-----------------2-------------2-----------------2-----|
|----------2-----------2-------------------4---------------------|
|4-------------------------------2-------------------------------|
|----------------------------------------------------------------|
 
 |               |               |               |                
|--------5h--------------2-------4-------------------------------|
|3---------------3-----------------------------------------------|
|------4---4-----------4---4-------------------------------------|
|2-------------------------------2-------------------------------|
|----------------------------------------------------------------|
|----------------------------------------------------------------|
 
 |               |               |               |                
|----------------2-------------------------------4---------------|
|--------2---------------2-2-------------3---------------3-------|
|------2---2-----------2---2-----------4---4-----------4---4-----|
|----------------------------------------------------------------|
|----------------------------------------------------------------|
|4-------------------------------6-------------------------------|
 
 |               |               |               |                
|----------------5-----------------------5-----------------------|
|----------------------------------------------------------------|
|--------6---------------6-7-----6-----6-------------------6-----|
|------7---7-------------7-7-----7---------7-----------7---------|
|0-------------------------------0---------------4---------------|
|----------------------------------------------------------------|
 
 |               |               |               |                
|--------0-------2-------0---------------0-------2---------------|
|------------------------------------------------------3---------|
|------2---2-----------2---2-----------2---2---------------------|
|0-------------------------4-----0-------------------------------|
|----------------------------------------------------------------|
|----------------------------------------------------------------|
 
 |               |               |               |                
|----------------2-------------------------------2---------------|
|--------5---------------5-5-------------5-------------5---------|
|------2---2-----------2---2-----------2---2---------------------|
|----------------------------------------------------------------|
|4-------------------------------4-------------------------------|
|----------------------------------------------------------------|
 
 |               |               |               |                
|----------------4-----------------------------------------------|
|--------5---------------5---------------3-------3---------------|
|------4---4-----------4---4-----------2---4---------------------|
|2-------------------------------2-----------------------2-------|
|----------------------------------------------------------------|
|----------------------------------------------------------------|
 
 |               |               |               |                
|------------------------------------------------2---------------|
|----------2---------------2---------------2---------------------|
|--------2---------------2---------------2-----------------------|
|------2---------------2---------------2-------------------------|
|0---------------------------------------------------------------|
|----------------6---------------4-------------------------------|
 
 |               |               |               |                
|------------------2-------------4-------------------------------|
|------------2-------------------5-------------------------------|
|------2-------------------------4-------------------------------|
|--------------------------------2-------------------------------|
|2---------------------------------------------------------------|
|----------------------------------------------------------------|
 
 |               |               |               |                
|----------------2-------------------------------2---------------|
|--------3-------------3-----------------5-------------3---------|
|----------2---------------2-----------2---2---------------2-----|
|0-----------------------------------------2---------------------|
|--------------------------------4---------------2---------------|
|----------------------------------------------------------------|
 
 |               |               |               |                
|----------------------------------------------------------------|
|2---------------------------------------------------------------|
|2---------------------------------------------------------------|
|2---------------------------------------------------------------|
|0---------------------------------------------------------------|
|----------------------------------------------------------------|
 
pompom020366@hotmail.com
Добавлено: 01.04.2012
Другие материалы по этой песне:
  • Аккорды и текст

Страница создана 01.04.2012
http://primanota.ru/ima/laisse-moi-taimer-chords.htm
Привет, Гость.
Предлагаем пройти революционный курс по гитаре.
Подарок от PrimaNota.Ru, забирай!