PrimaNota.ru - самый крупный в мире бесплатный архив песенных текстов, аккордов, табулатур и нот


Илья Орлов - Все правильно - аккорды и текст, видео

Регистрация Запомнить меня
Войти через:  Facebook Google Twitter Vk Yandex Mail.ru

Илья Орлов - Все правильно - аккорды и текст, видео

Печатать
Просмотров: 532
Все правильно
Илья Орлов
Am        B              Em        C
E|------3----2------------|-3----2-----------------|
B|-1----1----0------------|-0----0----1------------|
G|-2---------2------------|-0---------0------------|
D|------------------------|-----------2------------|
A|-0---------2------------|-----------3------------|
E|------------------------|-0----------------------|
 
   Am        B                    Em                   D
E|------3----2--------5---2--3--|-------------5--3--2-----3--2------------|
B|-1----1----0----0-------------|---------0---------------------3---1--0--|
G|-2---------2------------------|------0----------------------------------|
D|------------------------------|----------------------0------------------|
A|-0---------2------------------|-----------------------------------------|
E|------------------------------|-0---------------------------------------|

   Am        B              Em        C
E|------3----2------------|-3----2-----------------|
B|-1----1----0------------|-0----0----1------------|
G|-2---------2------------|-0---------0------------|
D|------------------------|-----------2------------|
A|-0---------2------------|-----------3------------|
E|------------------------|-0----------------------|

   Am        B                   Em
E|-3------------------5---2--0--|------12------|
B|-1----1----0----0-------------|------12------|
G|------2----2------------------|------12------|
D|------------------------------|--------------|
A|-0---------2------------------|--------------|
E|------------------------------|-0------------|


Em Em/G Am Am/C
Закрыты двери и глаза,
D D/F# G B
Листок бумаги неисписанный.
Em Em/G Am Am/C
Всё возвращается назад
D D/F# G
И снова обретает смысл, но

C D G Em
Разрежут по краям цвета и звуки, как бумагой, чувства,
C D Em G
И всё что было, не тая, я выплесну, и станет пусто.
Am B Em C (D)
Слова закончатся, и тишина
Am B Em
Уносит адреса и имена.

От этих мыслей не уйти,
И не проснуться улыбаясь мне.
И где-то на своём пути
Не повернуть, не потерять свой след.

И только серый цвет, и только серой пеленою небо,
Под серым солнцем мира нет, нет прошлого, и я в нём не был.
Воспоминаний резкий звук угас,
Растаял тихим эхом громких фраз.

Открыв глаза, раскрою дверь,
И выйду в ночь дышать прохладою.
Всё было, будет и теперь.
Так много слов, так мало надо мне.

Когда теряют смысл дни, а ночи дарят лишь усталость,
Пустого города огни и сны - вот всё, что мне осталось.
Я помню тех, кто навсегда со мной,
У каждого из них есть город свой.
Добавлено: 29.12.2013
Другие материалы по этой песне:
  • Аккорды и текст

Страница создана 16.08.2013
http://primanota.ru/ilya-orlov/vse-pravilno-chords.htm
Привет, Гость.
Предлагаем пройти революционный курс по гитаре.
Подарок от PrimaNota.Ru, забирай!