PrimaNota.ru - самый крупный в мире бесплатный архив песенных текстов, аккордов, табулатур и нот


Ilse De Lange - I Love You - таба, видео

Регистрация Запомнить меня
Войти через:  Facebook Google Twitter Vk Yandex Mail.ru

Ilse De Lange - I Love You - таба, видео

Печатать
Просмотров: 113
Ilse de Lange - I love you
Tuning: 1 step down, drop c
tabbed : Stijn Strotmann

Dit is wat ik van de uitzending van de wereld draait door heb kunnen tabben:

Couplet:
|-------------------------------------------|
|-------------------------------------------|
|-----------------------------4-5-5----2----|
|-----3h5-5-5-----3h5-5-3----------------5-3|
|-3-3---------3-3---------------------------|
|-------------------------5-5------3-3------|

|----|
|----|
|-9--|
|-10-|
|-8--|
|-7--|


Refrein:                                                                
|-------------------------------------------------------------------------------------------|
|------------------------------------------------------------------------------------3--3-5-|
|---------------------------------------------0----------------------------------------5----|
|-----3h5-5-5-----3h5-5-3-----3h5-5-5----3h5---------3h-5-5-5-----3h5--------3h5-5-5--------|
|-3-3---------3-3----------1-1--------1-1---------------------------------------------------|
|-------------------------------------------------3-3----------3-3----3-2-0-0---------------|
Добавлено: 30.05.2012
Другие материалы по этой песне:
  • Аккорды и текст

Страница создана 30.05.2012
http://primanota.ru/ilse-de-lange/i-love-you-chords.htm
Привет, Гость.
Предлагаем пройти революционный курс по гитаре.
Подарок от PrimaNota.Ru, забирай!