PrimaNota.ru - самый крупный в мире бесплатный архив песенных текстов, аккордов, табулатур и нот


Illya Kuryaki And The Valderramas - Van A Ver - таба, видео

Регистрация Запомнить меня
Войти через:  Facebook Google Twitter Vk Yandex Mail.ru

Illya Kuryaki And The Valderramas - Van A Ver - таба, видео

Печатать
Просмотров: 67
Esta canción es muy vacana.. y es muy sencilla... creo que
 todo lo que esta aquí esta bien o por lo menos suena 
bien... si tiene alguien alguna sugerencia, corrección, o
 necesita el mp3 de esta canción, o quiere agradecerme o 
saludarme o presentarme alguna niña bien linda le 
agradecería que me escribiera ha esta dirección:

sadkornho@ o tambien a kornho@

ah... soy de Bogota, Colombia!!!

Afine la guitarra de forma estándar (E A D G B e) Nota: ?e?
 es la 1ra cuerda.

Intro:

Este es de hecho el intro y el outro (como comienza y como 
termina la canción)

e-------------------------------------|
B-------------------------------------|
G-------------------------------------|
D-----------5-X-5---------5-X-5-------|
A----7-X-7--5-X-5--7-X-7--5-X-5-------|
E----7-X-7--3-X-3--7-X-7--3-X-3-------|

Riff de Versos:

Esto debe ser tocado ?palm meted? lo que significa que el 
sonido no debe salir nítido sino apagado. Para apagar el
sonido se debe ?rasgar? la guitarra mientras se descansa la
 parte lateral de la misma mano con la que se ?rasga?. Esta
 parte tambien es tocada después de cada coro 

e-----------------------------------|
B-----------------------------------|
G-----------------------------------|
D---2-2-----------------------------|
A---2-2-3-2-0-(0)-2-3-2-3-2-3-2-----|
E---X-X-3-2-0-(0)-2-3-2-3-2-3-2-----|

La ultima parte de este riff debe ser tocada rápidamente... 
(le recomiendo que escuche la canción para que capte lo que 
quiero decir).

Precoro:

Hay una parte que es hecha cada vez que se van entrar al 
coro... antes del coro... es así y es tocada sin apagar y 
en una sola rasgada esto significa que se rasga una ves en 
el traste 2, se desliza el dedo al traste 3 y se termina en
 el traste 5 y ahí comienza el coro...

e------------|
B------------|
G------------|
D---------7--|
A---X-2/3/7--|
E---X-2/3/5--|


Coro

Esto es lo que se toca cuando dicen: ?van a ver... cuando 
pueda levantarme...? y al terminar esto va el Riff de 
versos.

e-------------------------------------|
B-------------------------------------|
G-------------------------------------|
D-----7-7-7-7-7-7-\-5-5-5-5-5-5-------|
A-----7-7-7-7-7-7-\-5-5-5-5-5-5-------|
E-----5-5-5-5-5-5-\-3-3-3-3-3-3-------|

Listo!!! Eso es todo! Me falto el solo... pero si lo 
necesita le recomiendo que sencillamente se toque un solo 
que la salga del alma... La letra lamentablemente no la 
tengo...si la llega a conseguir le agradecería que me la 
mandara a la dirección anotada...por ultimo un servicio 
social: Si alguien vive en Bogota y quisiera tener un 
compañero para hacer ?Jamming? o sea: para ?pasar un rato 
tocando guitarra y jodiendo la vida...bien vacano ? escríbame!!!!.


Suerte!!! Y paciencia.... que esta vaina es muy facil!
Добавлено: 31.05.2016
Другие материалы по этой песне:
  • Аккорды и текст

Страница создана 31.05.2016
http://primanota.ru/illya-kuryaki-and-the-valderramas/van-a-ver-chords.htm
Привет, Гость.
Предлагаем пройти революционный курс по гитаре.
Подарок от PrimaNota.Ru, забирай!