PrimaNota.ru - самый крупный в мире бесплатный архив песенных текстов, аккордов, табулатур и нот


Illya Kuryaki And The Valderramas - Abismo - аккорды и текст, таба, видео

Регистрация Запомнить меня
Войти через:  Facebook Google Twitter Vk Yandex Mail.ru

Illya Kuryaki And The Valderramas - Abismo - аккорды и текст, таба, видео

Печатать
Просмотров: 65
Abismo
Illya Kuryaki And The Valderramas
ESTA VERSION DEL TEMA SUENA PERFECTA, ES UNA CORRECCION DE LA 
ANTERIOR Y ADEMAS INCLUI EL SOLO DE GUITARRA

Am7
Me estoy
E7
llevando el río
Dsus2
debo saciar
C
la sed de mi adivino.

Am7
Estoy
E7
corriendo mucho
Dsus2
un pez me grita
C
y yo nunca lo escucho.


Y desaparecer
es lo que me aconsejan
huir de tí
salirme de tu senda.

Pero tomé tu piel
quedé imantado a eso
como los bosques
imantan el silencio.

CORO:

A             A7 
Quien nos guía hacia el abismo
F7               F7 
sabe que quiero, sabe que busco el abismo
A              A7                F7       F7 
quien nos guía hacia el abismo


El mar
lo siento lejos
debo nadar
hasta tus sueños.

Desde
la fantasía
vos me dirás
lo fugaz que es la vida.


Y si quieren juzgarte
saca afuera tu alma
deja que el sol
inserte algo de calma.

Quebrar lo inquebrantable
y ver un mundo aparte
es lo que hace
que al fin yo pueda amarte.

CORO:

A             A7 
quien nos guía hacia el abismo
F7               F7 
sabe que quiero, sabe que busco el abismo
A              A7                F7       F7 
quien nos guía hacia el abismo


Solo:

e------------8-----------------------------------------------
b----------------------------------------------8s10-8---10-8-
g---9-9------7---[9]-7---7-----7s9-7---9-7-9-7---------------
d--------7-9---9-------9---9---------------------------------
a------------------------------------------------------------
E------------------------------------------------------------

e----------8---------------10-8------------------8br-------------
b---10-8------10--10(11)-8-------10-10-10-10-10---------7--9-9-7-
g--------9----------------------------------------------7--9-9-7-
d---------------------------------------------------7-9----------
a----------------------------------------------------------------
E----------------------------------------------------------------


e---------------------------------------------------------
b-----------------------11---9s0--------------------------
g--5s7--5-5-------------11---9s0--------------------------
d-----------7-9-7-----------------------------------------
a---------------------------------------------------------
E---------------------------------------------------------

        E a d g b e

Am7:   /-/0/2/0/1/0/
E7:    /0/2/0/1/0/-/
Dsus2: /-/-/0/2/3/0/
A7 :   /-/0/2/1/2/0/
F7 :   /-/-/3/2/1/0/

DEDICADA PARA VOS DANY, TE AMO MUCHO, 
GRACIAS POR SER LA LUCECITA QUE HACE BRILLAR MI VIDA =)
Добавлено: 08.04.2016
Другие материалы по этой песне:
  • Аккорды и текст

Страница создана 08.04.2016
http://primanota.ru/illya-kuryaki-and-the-valderramas/abismo-chords.htm
Привет, Гость.
Предлагаем пройти революционный курс по гитаре.
Подарок от PrimaNota.Ru, забирай!