PrimaNota.ru - самый крупный в мире бесплатный архив песенных текстов, аккордов, табулатур и нот


Illscarlett - Heaters - таба, видео

Регистрация Запомнить меня
Войти через:  Facebook Google Twitter Vk Yandex Mail.ru

Illscarlett - Heaters - таба, видео

Печатать
Просмотров: 137
 .:Heaters:.
by Illscarlett

Tabbed by NIABOC 94 tom_penny101@hotmail.com

Standard Tuning

Legend:
.----------------
.pm - palm mute  .
./ - slide up    .
.\ - slide down  .
-----------------

Intro (Also The Chorus)

e------5--------------------------5------------------|
B------5--------------------------5---------1-----0--|
G------6-------------------7-6----6-------0-----0----|
D------7-----------------------7--7-----2-----1------|
A--0-------5-3-3-3-----5-5------------3-----2--------|
E------------------3-3-------------------------------|
           ......pm.......


e------5---------------------------------------------|
B------5----------------------6----6--5--5-/-8-------|
G------6----------------------5----5--4--4-/-7-------|
D------7----------------------3----3--2--2-/-5-------|
A--0------5-3-3-3-----5-5---0----0-------------------|
E-----------------3-3--------------------------------|
         .......pm........  pm   pm


e------5--------------------------5------------------|
B------5--------------------------5------------------|
G------6-------------------7-6----6------------------|
D------7-----------------------7--7------------------|
A--0-------5-3-3-3-----5-5-----------3-3-3-----------|
E------------------3-3------------------------3-3-3--|
           ......pm.......          ........pm.......


e------5---------------------------------------------|
B------5----------------------6----6--5--5-/-8-------|
G------6----------------------5----5--4--4-/-7-------|
D------7----------------------3----3--2--2-/-5-------|
A--0------5-3-3-3-----5-5---0----0-------------------|
E-----------------3-3--------------------------------|
         .......pm........  pm   pm


Verse

e----5---5-----3---3-----5---5-----3---3-----5---5-----3---3-----5---5-----3---3--|
B----5---5-----3---3-----5---5-----3---3-----5---5-----3---3-----5---5-----3---3--|
G----6---6-----4---4-----6---6-----4---4-----6---6-----4---4-----6---6-----4---4--|
D---------------------------------------------------------------------------------|
A---------------------------------------------------------------------------------|
E---------------------------------------------------------------------------------|


e----5---5-----3---3-----5---5-----3---3-----5---5-----3---3-----5---5-----3---3--|
B----5---5-----3---3-----5---5-----3---3-----5---5-----3---3-----5---5-----3---3--|
G----6---6-----4---4-----6---6-----4---4-----6---6-----4---4-----6---6-----4---4--|
D---------------------------------------------------------------------------------|
A---------------------------------------------------------------------------------|
E---------------------------------------------------------------------------------|


Chorus

Prechorus pt 1


e----5---5-----3---3-----5---5-----3---3-----1---1-----3---3-----1---1-----3---3--|
B----5---5-----3---3-----5---5-----3---3-----1---1-----3---3-----1---1-----3---3--|
G----6---6-----4---4-----6---6-----4---4-----2---2-----4---4-----2---2-----4---4--|
D---------------------------------------------------------------------------------|
A---------------------------------------------------------------------------------|
E---------------------------------------------------------------------------------|


e----5---5-----3---3-----5---5-----3---3-----1---1-----3---3-----1---1-----7-----|
B----5---5-----3---3-----5---5-----3---3-----1---1-----3---3-----1---1-----8-----|
G----6---6-----4---4-----6---6-----4---4-----2---2-----4---4-----2---2-----------|
D--------------------------------------------------------------------------------|
A--------------------------------------------------------------------------------|
E--------------------------------------------------------------------------------|
                                                                          ..let ring..

Prechorus pt 2

e---5--5--5--5---7--7--7--7---5--5--5--5--5--5--5--5-----|
B---6--6--6--6---8--8--8--8---6--6--6--6--6--6--6--6-----|
G--------------------------------------------------------|
D--------------------------------------------------------|
A--------------------------------------------------------|
E--------------------------------------------------------|

e---5--5--5--5---7--7--7--7---5--5--5--5--5--5--5--5-----|
B---6--6--6--6---8--8--8--8---6--6--6--6--6--6--6--6-----|
G--------------------------------------------------------|
D--------------------------------------------------------|
A--------------------------------------------------------|
E--------------------------------------------------------|


The second part of prechorus 2 is played with this solo

e-----------7---------------------------------7------7---|
B--------8----8-------------10--------------------8------|
G----7/9---------9--7----9-----------7/9--9--------------|
D--------------------------------------------------------|
A--------------------------------------------------------|
E--------------------------------------------------------|


Proper Sequence

Intro

chorus

Verse

Chorus

PreChorus

Chorus x2


FINALLY!! I'm done. Enjoy, this took a while.


I am almost positive this is 100% correct, but if there
are any mistakes just email me and I'll fix them.
Добавлено: 02.05.2012
Другие материалы по этой песне:
  • Аккорды и текст

Страница создана 02.05.2012
http://primanota.ru/illscarlett/heaters-chords.htm
Привет, Гость.
Предлагаем пройти революционный курс по гитаре.
Подарок от PrimaNota.Ru, забирай!