PrimaNota.ru - самый крупный в мире бесплатный архив песенных текстов, аккордов, табулатур и нот


Illnath - Pieta - текст песни, таба, видео

Регистрация Запомнить меня
Войти через:  Facebook Google Twitter Vk Yandex Mail.ru

Illnath - Pieta - текст песни, таба, видео

Печатать
Просмотров: 218
Hi, another song of Illnath - Pieta. quite simple, but damn fast. Check out my 
other tabs of illnath and not only.
enjoy it!

tunnig standard

Rythm guitar
Solo guitar


Intro 0:00; 3:36

e|-----------------------------------------------------------------|
B|-----------------------------------------------------------------|
G|-9-------9-------9-------9---9---9-------9-------9-------9---9---|
D|-9-------9-------9-------9---9---9-------9-------9-------9---9---|
A|-7-------7-------7-------7---7---7-------7-------7-------7---7---|
E|---0-0-0---0-0-0---0-0-0---0---0---0-0-0---0-0-0---0-0-0---0---0-|

     pm---|  pm---|  pm---|  pm  pm  pm---|  pm---|  pm---|  pm  pm


Pre-Verse 0:04; 1:07; 3:41

Rythm Guitar

e|-----------------------------------------------------------------|
B|-----------------------------------------------------------------|
G|-----------------------------------------------------------------|
D|-2-----------------------5---------------------------------------|
A|-2-----------------------5---------------------------------------|
E|-0-----------------------3---------------------------------------|


e|-----------------------------------------------------------------|
B|-----------------------------------------------------------------|
G|------------------------------------7----------------------------|
D|-7-----------------------5----------7--------2-------2---------2-|
A|-7-----------------------5----------5--------2-------2---------2-|
E|-5-----------------------3-----------------0-0---0-0-0---0-0-0-0-|

                                             pm    pm-|    pm---|

e|-----------------------------------------------------------------|
B|-----------------------------------------------------------------|
G|-------------5-------5---------5-----5---5-----------------------|
D|-----2---2---5-------5---------5-----5---5---5-------5---------5-|
A|-----2---2---3---3-3-3---3-3-3-3-3-3-3-3-3-3-5-------5---------5-|
E|-0-0-0-0-0-0---------------------------------3---3-3-3---3-3-3-3-|

   pm-|  pm  pm    pm-|    pm---|  pm-|  pm  pm    pm-|    pm---|

e|-----------------------------------------------------------------|
B|-----------------------------------------------------------------|
G|-----------------------------7-------7---7\----------------------|
D|-----5---5---7-------7-------7-------7---7\--2-------------------|
A|-----5---5---7-------7-------5---5-5-5-5-5\--2-------------------|
E|-3-3-3-3-3-3-5---5-5-5---5-5-----------------0-------------------|

   pm-| pm   pm    pm-|    pm-|    pm-|  pm  


Solo Guitar

This simple solo is played 3 times (intro, middle, ending). every of those has 
little changes at the end.
second ending is empty - just play next riff right after last sound (7 on B).


e|-12-12---------------12-12---------------------------------------|
B|-------12--------------------12----10-/12~----10-12-12-12b13=r12-|
G|----------9~---------------9-------------------------------------|
D|-----------------------------------------------------------------|
A|-----------------------------------------------------------------|
E|-----------------------------------------------------------------|

e|----------------------------------------10---12-12---------12-12-|
B|-10~---8-10-10-10b12=r10-8~---7h8p7-7--------------12------------|
G|------------------------------------------------------9~---------|
D|-----------------------------------------------------------------|
A|-----------------------------------------------------------------|
E|-----------------------------------------------------------------|

e|----------------------------------------10---12-12---------12-12-|
B|-10~---8-10-10-10b12=r10-8~---7h8p7-7--------------12------------|
G|------------------------------------------------------9~---------|
D|-----------------------------------------------------------------|
A|-----------------------------------------------------------------|
E|-----------------------------------------------------------------|

e|-----------------------------------------------------------------|
B|---12---10--10\8-8~--8/10-10/12-12~--10--10/12-12--12b13==13r12--|
G|-9---------------------------------------------------------------|
D|-----------------------------------------------------------------|
A|-----------------------------------------------------------------|
E|-----------------------------------------------------------------|

                         1         2                 3
                   _________________________________________________
                  |             |     |                             |
e|----------------|---<12>~--\\-|-----|-----------------------------|
B|-10~--8h10p8-7~-|-------------|-----|--8-8-8-8---7-8~~------------|
G|----------------|-------------|-----|-----------------------------|
D|----------------|-------------|-----|-----------------------------|
A|----------------|-------------|-----|-----------------------------|
E|----------------|-------------|-----|-----------------------------|


12 in () is with strong bend.

Verse 0:29; 2:29

e|-----------------------------------------------------------------|
B|-----------------------------------------------------------------|
G|-----9---7---9-------9---7---9-------9---7---9---10---9---7---9--|
D|-----------------------------------------------------------------|
A|-7-7---7---7---7-7-7---7---7---7-7-7---7---7---7----7---7---7---7|
E|-----------------------------------------------------------------|

   pm-|  pm  pm  pm---|  pm  pm  pm---|  pm  pm  pm   pm  pm  pm  pm

e|-----------------------------------------------------------------|
B|-----------------------------------------------------------------|
G|-----9---7---9-------9---7---9-------9---7---9---10---9---7---9--|
D|-----------------------------------------------------------------|
A|-----------------------------------------------------------------|
E|-8-8---8---8---8-8-8---8---8---8-7-7---7---7---7----7---7---7---7|

   pm-|  pm  pm  pm---|  pm  pm  pm---|  pm  pm  pm   pm  pm  pm  pm

Its Very fast, but not so hard, if you will hold index finger on 7th bar

Chorus 0:48; 2:48

e|-----------------------------------------------------------|
B|-----------------------------------------------------------|
G|-------------------------------------------10-10-10-10\7-7-|
D|-8-----8-----7----7-7\5---2----------------10-10-10-10\7-7-|
A|-8-----8-----7----7-7\5---2-----------------8--8--8--8\5-5-|
E|-6---6-6---6-5----5-5\3---0---0-0-0-0-0-0-0----------------|

       pm    pm                 pm-----------|


                                           1                                 2
                            _________________________________ ______________________________
                           |                                 |                              |
e|-----------------------------------------------------------|------------------------------|
B|-----------------------------------------------------------|------------------------------|
G|-----------------------------------------------------------|------------------------------|
D|-8-----8-----7----7-7\5---2--------------------------------|-7-------7-------7-------7--\-|
A|-8-----8-----7----7-7\5---2--------------------------------|-7-------7-------7-------7--\-|
E|-6---6-6---6-5----5-5\3---0---0-0-0-0-0-0-0-0-0-0-0-0-0----|-5---5-5-5---5-5-5---5-5-5--\-|

       pm    pm                 pm-----------------------|         pm-|    pm-|    pm-|

Again Pre-Chorus Riff

Then

Bridge 1:26; 3:07

Solo Guitar is simple, plays along with keyboard

e|-----------------------------------------------------------|
B|-8---7h8p7---8---10~~---------8---7h8p7---8----------------|
G|----------------------------------------------9~~----------|
D|-----------------------------------------------------------|
A|-----------------------------------------------------------|
E|-----------------------------------------------------------|

e|-----------------------------------------------------------|
B|-8---7h8p7---8---10~~---------8---7h8p7---8----------------|
G|----------------------------------------------8~~----------|
D|-----------------------------------------------------------|
A|-----------------------------------------------------------|
E|-----------------------------------------------------------|

And Repeat it 3 times

Rythm Guitar

e|-----------------------------------------------------------------------------------|
B|-----------------------------------------------------------------------------------|
G|-------------------------------------------------------------------------------10--|
D|---------2-------------2-------2-----2-------------5-------------9-------9-----10--|
A|---------2-------------2-------2-----2-------------5-------------9-------9---888---|
E|-0-0-0-0-0-----0-0-0-0-0-----000---000-----3-3-3-3-3-----7-7-7-7-7-----777---------|

   pm-----|      pm-----|      pm    pm      pm-----|      pm-----|      pm    pm

Solo 1:55

Rythm 

e|-----------------------------------------------------|
B|-----------------------------------------------------|
G|--------------------------7-------------------4------| 2
D|-2------------------------7------------5------4------| x
A|-2------------------------5------------5------2------|
E|-0-------------------------------------3-------------|

e|-----------------------------------------------------|
B|-----------------------------------------------------|
G|--------7-----------------5------------7------9/-----|
D|-5------7------2----------5------5-----7------9/-----|
A|-5------5------2----------3------5-----5------7/-----|
E|-3-------------0-----------------3------------0/-----|


Solo

  1:55
e|-----------------------------------------------------|
B|-8-8-------8-8---10b=r10-8-10-8---------8-10-10br----|
G|-----9~--------9----------------9~----9--------------|
D|-----------------------------------------------------|
A|-----------------------------------------------------|
E|-----------------------------------------------------|

  2:00
e|-----------------------------------------------------|
B|-10-10-10-8-8-8-7-7-7-5-5-5-3-3-3--------------------|
G|----------------------------------5-5-5-4-4-4-2-2-2--|
D|-----------------------------------------------------|
A|-----------------------------------------------------|
E|-----------------------------------------------------|

                                  wah on 
e|-------------------------------------------------------------------------|
B|--------------------------------8-10-10b=r10-10-10b=r10-10-10-10b=r10-10-|
G|-4-4-4-5-5-5-7-7-7-5-5-5-4~~---------------------------------------------|
D|-------------------------------------------------------------------------|
A|-------------------------------------------------------------------------|
E|-------------------------------------------------------------------------|

                                   2:09
e|---------------------------------t19p17p15-t19p17p15-t19p17p15-t19p17p15-|
B|-10b=r-10-10-10b=r10-8---8-10-8~-----------------------------------------|
G|-----------------------9-------------------------------------------------|
D|-------------------------------------------------------------------------|
A|-------------------------------------------------------------------------|
E|-------------------------------------------------------------------------|


e|-t19p17p15-t19p17p15-t19p17p15-t19p17p15-t19p17p15-t19p17p15-t20p19p15---|
B|-------------------------------------------------------------------------|
G|-------------------------------------------------------------------------|
D|-------------------------------------------------------------------------|
A|-------------------------------------------------------------------------|
E|-------------------------------------------------------------------------|

				       2:14
e|-t20p19p15-t20p19p15-t20p19p15-19~~--------------------------------------|
B|--------------------------------------8~~---10-/12-10-8-7h8-5~~--5-3-----|
G|---------------------------------------------------------------------5---|
D|-------------------------------------------------------------------------|
A|-------------------------------------------------------------------------|
E|-------------------------------------------------------------------------|

e|-------------------------------------------------------------------------|
B|---5---\8-7~~--------5~~//-----------------------------------------------|
G|-7-----------------------------------------------------------------------|
D|-------------------------------------------------------------------------|
A|-------------------------------------------------------------------------|
E|-------------------------------------------------------------------------|

Wah could be off right before tapping or in 2:14. your call.


all in all

Intro Riff	
Pre-Verse Riff	1st ending
Verse		
Chorus		
Pre-Verse Riff	2nd ending
Bridge	
Solo
Verse
Chorus
Bridge
Intro Riff
Pre-Verse Riff 3th ending

Lyrics

Your smile so dim, your eyes alive
A gesture hides a vicious lie
Your face so clean, but deep inside
I know you're hiding something
A trace so faint, a chisel's scar
Carved piece by piece who you are
His head held high, but deep inside
I know you're hiding something

Pieta, you're the one and only truly holy sculpture
So now... sentenced by the divine tool I wheel he falls down

A crack and crackle, a thin black sear
Upon the surface pale and raw
Frozen for now, neatly carved
Deep in silence, clutching at straws
I crush the face, the crumbling lines
An expanding maze that seems alive

Again alone, you're face is gone
Still I see no confession coming from
Your soul, your core, your hand, your son
Still I know you're hiding something
I sit and wait, then un-create
My mind confused and filled with hate
I marvel at our common fate
Still I know you're hiding something

Pieta, you're the one and only truly holy sculpture
So now... sentenced by the divine tool I wheel he falls down

Another crack upon the marble
Disfigurement I don't even enjoy
I see it now, though in vain
I see how perfect art is pain
And as I make you dissolve
I see the secret that I have destroyed 

----------------

Ok, its all i think
take care, lordlolek

Questions? Sugestions? mail me: lordlolek17@gmail.com
Добавлено: 16.03.2012
Другие материалы по этой песне:
  • Аккорды и текст

Страница создана 16.03.2012
http://primanota.ru/illnath/pieta-chords.htm
Привет, Гость.
Предлагаем пройти революционный курс по гитаре.
Подарок от PrimaNota.Ru, забирай!