PrimaNota.ru - самый крупный в мире бесплатный архив песенных текстов, аккордов, табулатур и нот


Illes - Emlek M-nek - таба, видео

Регистрация Запомнить меня
Войти через:  Facebook Google Twitter Vk Yandex Mail.ru

Illes - Emlek M-nek - таба, видео

Печатать
Просмотров: 167
Emlék M-nek
Illés zenekar ("Illés group")
Written by Levente Szörényi and János Bródy; released on the album "Add a kezed".

This short and melancholic song (the title in English would be something like "Memory for M.") comes from the
group's 1972 album "Add a kezed". For most of the piece, the arrangement consists of a single acoustic guitar
and solo lead vocal by Levente Szörényi. A wordless backing vocal and an organ is added in the second verse,
and the song reaches its climax in the bridge, where the rest of the band (a second acoustic guitar, bass,
drums) plus a string ensemble enters. The bridge starts off (after the tempo slows down a bit at the end of the
second verse) with an almost insane-sounding scale fragment, creating the illusion of tempo change (caused by
eighth, then triplet eighth and then sixteenth notes played). Then in the third (and final) verse only the lead
and backing vocals and the two acoustic guitars remain.
The lyrics tell of a love that's lost forever, the narrator saying that if he had another life and could have
started it over again, he would spend his days (i.e. live his life) with this girl. It can't be figured out
what had led to the end of this relationship (or whether there was one between them at all), but it's likely
not possible to get together (again), as in the bridge he says "I know it's only a dream".
On a tour in the summer of 2005 the group performed the song dedicated to their drummer Zoltán Pásztory, who
had passed away earlier in that year.
The sixteenth-note arpeggios in the verses are quite difficult to play, and might require some practicing. Let
all notes ring.

0:00
Verse:
  Bm7
e|2------ 2------ 2------ 2------|2------ 2------ 2------ 2------| Guitar #1
B|----0-----------------------0--|------------0------------------|
G|------------2-------2----------|----2---------------2-------2--|
D|--0---0---0---0---0---0---0---0|--0---0---0---0---0---0---0---0|
A|-------------------------------|-------------------------------|
E|-------------------------------|-------------------------------|
               Ha lenne   még egy é     -     le- tem,

  Bm6
e|2------ 2------ 2------ 2------|2------ 2------ 2------ 2------|
B|-------------------------------|-------------------------------|
G|----1-------1-------1-------1--|----1-------1-------1-------1--|
D|--0---0---0---0---0---0---0---0|--0---0---0---0---0---0---0---0|
A|-------------------------------|-------------------------------|
E|-------------------------------|-------------------------------|
               és új- ra- kezdeném,

  Gmaj7                           Em
e|2------ 2------ 2------ 2------|0------ 0------ 0------ 0------|
B|----------------------------0--|-------------------------------|
G|----0-------0-------0-------0--|----0-------0-------0-------0--|
D|--0---0---0---0---0---0---0---0|--2---2---2---2---2---2---2---2|
A|-------------------------------|-------------------------------|
E|-------------------------------|-------------------------------|
                  Másképp lenne min - den,            igen,

  C                               G
e|0------ 0------ 0------ 0------|3------ 3------ 3------ 3------|
B|----1---------------1-------1--|----------------------------0--|
G|------------0------------------|----0-------0-------0----------|
D|--2---2---2---2---2---2---2---2|--0---0---0---0---0---0---0---0|
A|-------------------------------|-------------------------------|
E|-------------------------------|-------------------------------|
                A napjaim   veled él- ném,                      veled

  D
e|2-----------------------------------|
B|3-----------------------------------|
G|2-----------------------------------|
D|0-----------------------------------|
A|------------------------------------|
E|------------------------------------|
  él- ném.

0:23
Verse:
  Bm7
e|2------ 2------ 2------ 2------|2------ 2------ 2------ 2------|
B|-------------------------------|------------0------------------|
G|----2-------2-------2-------2--|----2---------------2-------2--|
D|--0---0---0---0---0---0---0---0|--0---0---0---0---0---0---0---0|
A|-------------------------------|-------------------------------|
E|-------------------------------|-------------------------------|
                  Né- ha  ar- ról ál    -     mo- dom,
                                         (á   -   á   -   á-

  Bm6
e|2------ 2------ 2------ 2------|2------ 2------ 2------ 2------|
B|-------------------------------|-------------------------------|
G|----1-------1-------1-------1--|----1-------1-------1-------1--|
D|--0---0---0---0---0---0---0---0|--0---0---0---0---0---0---0---0|
A|-------------------------------|-------------------------------|
E|-------------------------------|-------------------------------|
              egy má- sik csillagon
  á               -               á-

  Gmaj7                           Em6
e|2------ 2------ 2------ 2------|0------ 0------ 0------ 0------|
B|----------------------------0--|------------2---------------2--|
G|----0-------0-------0----------|----0---------------0-------0--|
D|--0---0---0---0---0---0---0---0|--2---2---2---2---2---2---2---2|
A|-------------------------------|-------------------------------|
E|-------------------------------|-------------------------------|
                  Megtalál -  lak té- ged,            igen,
  á)                                     (á   -   á   -   á

  C                               G
e|0------ 0------ ------- 0------|3------ 3------ 3------ 3------|
B|----1-------1---1-----------1--|----0-----------------------0--|
G|--0-----------------0----------|------------0-------0----------|
D|------2---2---2---2---2---2---2|--0---0---0---0---0---0---0---0|
A|-------------------------------|-------------------------------|
E|-------------------------------|-------------------------------|
                A napjaim   veled é - lem,                    veled
  á               -               á)

0:44
(slightly slower)
  D
e|2------ ------- ------- -------|------- ------- ------- -------| Guitar #1
B|3------------------------------|----------------------------2-3|
G|2------------------------------|------------------------2-4----|
D|0------------------------------|----------------0--2--4--------|
A|-------------------------------|5-------0---2------------------|
E|-------------------------------|-------------------------------|
                    C       G     D
e|------- ------- --0-0-0 0-3-3-3|2------ ------- ------- -------| Guitar #2
B|------------------1-1-1-1-0-0-0|3------------------------------|
G|------------------0-0-0-0-0-0-0|2------------------------------|
D|------------------2-2-2-2-0-0-0|0------------------------------|
A|------------------3-3-3-3-2-2-2|-------------------------------|
E|--------------------------3-3-3|-------------------------------|

G|------- ------- ------- -------|------- ------- ------- ----6-7| Bass
D|-------------------------------|------------------------7-9----|
A|5------------------------------|5---------------5--7--9--------|
E|-------------------------------|--------5---7------------------|
  é - lem.

0:50
Bridge:
          D#m                     G               Gaug        C
e|------- 2------ ------- 2------|3------ 3------ 3---3-- -------|
B|4-------4---------------4------|3-------3-------4---4-------1--|
G|--------3---------------3------|4-------4-------4---4-------0--|
D|--------4---------------4------|5-------5-------5---5-------2--|
A|-------------------------------|----------------------------3--|
E|-------------------------------|-------------------------------|
  D#m                             G               Gaug        C
e|2---2-2 2---2-- 2---2-- 2---2-2|3---3-3 3---3-- 3---3-- ----0--|
B|4---4-4-4---4---4---4---4---4-4|3---3-3-3---3---4---4-------1--|
G|3---3-3-3---3---3---3---3---3-3|4---4-4-4---4---4---4-------0--|
D|4---4-4-4---4---4---4---4---4-4|5---5-5-5---5---5---5-------2--|
A|-------------------------------|----------------------------3--|
E|-------------------------------|-------------------------------|

G|8------ ------- 8---6-- -------|------- ------- ------- -------|
D|--------------8---------8------|5---------------5---5----------|
A|-------------------------------|--------------5-------------3--|
E|-------------------------------|-------------------------------|


                  G               D
e|------- ------- 3------ -------|2------ ------- ------- -------|
B|----------------0--------------|3------------------------------|
G|----------------0--------------|2------------------------------|
D|----------------0--------------|0------------------------------|
A|----------------2--------------|-------------------------------|
E|----------------3--------------|-------------------------------|
                  G               D               C         G
e|------- ------- 3------ -------|2------ ------- 0-0-0-0 0-3-3-3|
B|----------------0--------------|3---------------1-1-1-1-1-0-0-0|
G|----------------0--------------|2---------------0-0-0-0-0-0-0-0|
D|----------------0--------------|0---------------2-2-2-2-2-0-0-0|
A|----------------2--------------|----------------3-3-3-3-3-2-2-2|
E|----------------3--------------|--------------------------3-3-3|

G|------- ------- ------- -------|------- ------- ------- -------|
D|-------------------------------|-------------------------------|
A|-------------------------------|5------------------------------|
E|----------------3--------------|-------------------------------|
          Tudom,  ez  csak    á   -   lom.

                                                    D#m
e|------- ------- ------- -------|------- ------- --2---2 2------|
B|----------------------------2-3|4-------4---------4---4-4------|
G|------------------------2-4----|--------3---------3---3-3------|
D|----------------0--2--4--------|------------------4---4-4------|
A|5-------0---2------------------|-------------------------------|
E|-------------------------------|-------------------------------|
  D                               D#m
e|2------ ------- ------- -------|2---2-2 2---2-2 --2---2 2---2--|
B|3------------------------------|4---4-4-4---4-4---4---4-4---4--|
G|2------------------------------|3---3-3-3---3-3---3---3-3---3--|
D|0------------------------------|4---4-4-4---4-4---4---4-4---4--|
A|-------------------------------|-------------------------------|
E|-------------------------------|-------------------------------|

G|------- ------- ------- ----6-7|8------ ------- 8---6-- -------|
D|------------------------7-9----|--------------8---------8------|
A|5---------------5--7--9--------|-------------------------------|
E|--------5---7------------------|-------------------------------|


  G               Gaug        C                   G
e|3------ 3------ 3---3-- -------|------- ------- 3------ -------|
B|3-------3-------4---4-------1--|----------------0--------------|
G|4-------4-------4---4-------0--|----------------0--------------|
D|5-------5-------5---5-------2--|----------------0--------------|
A|----------------------------3--|----------------2--------------|
E|-------------------------------|----------------3--------------|
  G               Gaug        C                   G
e|3---3-3 3---3-- 3---3-- ----0--|------- ------- 3------ -------|
B|3---3-3-3---3---4---4-------1--|----------------0--------------|
G|4---4-4-4---4---4---4-------0--|----------------0--------------|
D|5---5-5-5---5---5---5-------2--|----------------0--------------|
A|----------------------------3--|----------------2--------------|
E|-------------------------------|----------------3--------------|

G|------- ------- ------- -------|------- ------- ------- -------|
D|5---------------5---5----------|-------------------------------|
A|--------------5-------------3--|-------------------------------|
E|-------------------------------|----------------3--------------|
                                          Tudom,  ez  csak    á-

  D
e|2------ ------- ------- -------|
B|3------------------------------|
G|2------------------------------|
D|0------------------------------|
A|-------------------------------|
E|-------------------------------|
  D
e|2------ ------- ------- -------|
B|3------------------------------|
G|2------------------------------|
D|0------------------------------|
A|-------------------------------|
E|-------------------------------|

G|------- ------- ------- -------|
D|-------------------------------|
A|5------------------------------|
E|-------------------------------|
      lom.

1:15
Verse:
(original tempo)
  Bm7
e|2------ 2------ 2------ 2------|2------ 2------ 2------ 2------| Guitar #1
B|----0-------0-------0----------|------------0------------------|
G|----------------------------2--|----2---------------2-------2--|
D|--0---0---0---0---0---0---0---0|--0---0---0---0---0---0---0---0|
A|-------------------------------|-------------------------------|
E|-------------------------------|-------------------------------|

e|------- ------- ----2-- -------|------- ------- ----2-- -------| Guitar #2
B|0-----------3---------------3--|0-----------3---------------3--|
G|-------------------------------|-------------------------------|
D|-------------------------------|-------------------------------|
A|-------------------------------|-------------------------------|
E|-------------------------------|-------------------------------|
               Az ut- ca  má- sik ol     -    da- lán
                                         (á   -   á   -   á-

  Bm6
e|2------ 2------ 2------ 2------|2------ 2------ 2------ 2------|
B|-------------------------------|-------------------------------|
G|----1-------1-------1-------1--|----1-------1-------1-------1--|
D|--0---0---0---0---0---0---0---0|--0---0---0---0---0---0---0---0|
A|-------------------------------|-------------------------------|
E|-------------------------------|-------------------------------|

e|------- ------- ----2-- -------|------- ------- ----2-- -------|
B|0-----------3---------------3--|0-----------3---------------3--|
G|-------------------------------|-------------------------------|
D|-------------------------------|-------------------------------|
A|-------------------------------|-------------------------------|
E|-------------------------------|-------------------------------|
               ha új- ra  látlak én,
  á               -               á-

  Gmaj7                           Em6
e|2------ 2------ 2------ 2------|0------ ------- ------- 0------|
B|-------------------------------|--------2-------2--------------|
G|----0-------0-------0-------0--|----0-------0-------0-------0--|
D|--0---0---0---0---0---0---0---0|--2---2---2---2---2---2---2---2|
A|-------------------------------|-------------------------------|
E|-------------------------------|-------------------------------|

e|------- ------- ----2-- -------|5------ ------- ------- -------|
B|0-----------3---------------3--|5-------------------5----------|
G|-------------------------------|------------6---------------6--|
D|-------------------------------|-------------------------------|
A|-------------------------------|-------------------------------|
E|-------------------------------|-------------------------------|
                S könnyes szép szemedben,             igen,
  á)                                     (á   -   á   -   á

  C                               G
e|------- 0------ ------- 0------|------- 3------ 3------ 3------|
B|1---------------1--------------|0---------------------------0--|
G|----0-------0-------0-------0--|----0-------0-------0----------|
D|--2---2---2---2---2---2---2---2|--0---0---0---0---0---0---0---0|
A|-------------------------------|-------------------------------|
E|-------------------------------|-------------------------------|

e|5------ ------- ------- -------|3------ ------- ------- -------|
B|5-------------------5----------|3-----------0-------3-------0--|
G|------------5---------------5--|-------------------------------|
D|-------------------------------|-------------------------------|
A|-------------------------------|-------------------------------|
E|-------------------------------|-------------------------------|
                     ez a dal csak egy emlék,                 csak egy
  á               -               á)

1:36
Outro:
  D                               D/5-
e|------- 2------ 2------ 2------|2------ 2------ 2------ 2------|
B|3-----------3-------3-------3--|------------3-------3----------|
G|----2--------------------------|----1-----------------------1--|
D|--0---0---0---0---0---0---0---0|--0---0---0---0---0---0---0---0|
A|-------------------------------|-------------------------------|
E|-------------------------------|-------------------------------|
  D
e|2------ ------- ------- -------|------- ------- ------- -------|
B|3------------------------------|-------------------------------|
G|2------------------------------|-------------------------------|
D|-------------------------------|-------------------------------|
A|-------------------------------|-------------------------------|
E|-------------------------------|-------------------------------|
  em- lék,                    egy em- lék,                    egy
 (á               -               á)

Slow down the tempo gradually until the end
  Gmaj7                           D
e|2------ 2------ 2------ 2------|2------ ------- ------- -------| Guitar #1
B|----3-----------------------3--|3------------------------------|
G|------------0-------0----------|2------------------------------|
D|--0---0---0---0---0---0---0---0|0------------------------------|
A|-------------------------------|-------------------------------|
E|-------------------------------|-------------------------------|
  em- lék,            egy vallo - más.
 (á               -               á)
Добавлено: 05.08.2015
Другие материалы по этой песне:
  • Аккорды и текст

Страница создана 05.08.2015
http://primanota.ru/illes/emlek-m-nek-chords.htm
Привет, Гость.
Предлагаем пройти революционный курс по гитаре.
Подарок от PrimaNota.Ru, забирай!