PrimaNota.ru - самый крупный в мире бесплатный архив песенных текстов, аккордов, табулатур и нот


Illdisposed - I Believe In Me - текст песни, таба, видео

Регистрация Запомнить меня
Войти через:  Facebook Google Twitter Vk Yandex Mail.ru

Illdisposed - I Believe In Me - текст песни, таба, видео

Печатать
Просмотров: 204
Illdisposed - I Believe In Me

Tabbed by: Insomnia
Email/MSN: gertk666@hotmail.com
Date: 08.09.05

Illdisposed - I Believe In Me

Album: 1-800 Vindication

=====================================

B - E - A - D - F# - B

=====================================

Riff 1                                             1,3      2,4
|-------------------------------------------|---------|---------|
|-------------------------------------------|---------|---------|
|-------------------------------------------|---------|---------|
|-2------2---4---5---7---5-4-7--------------|---------|---------|
|-2--------------------------5-555---9------|-7/9-9-9-|-95-5-5--|
|-0--000---0---0---0---0-------------7-777--|-5/7-7-7-|-73-3-3--|
     ...   .   .   .   .



Riff 2a
|-------------------------------------------------------------------------|
|-------------------------------------------------------------------------|
|-------------------------------------------------------------------------|
|-------------------------------------------------------------------------|
|-5-----------------------------------------------------7----7/9-9-99-9-7-|
|-3-33-3h6p3-33-3h6p2-22-2h5p2-22-2h5p3-33-3h6p3-33-3h6-5-55-5/7-7-77-7-5-|
  . ..     . ..     . ..     . ..     . ..     . ..       ..       ..


Riff 3
|------------------------------------------------------|
|------------------------------------------------------|
|------------------------------------------------------|
|------------------------------------------------------|
|----------------------------------------7------9------|
|-3-6-3-333333-2-5-2-222222-3-6-3-333333-5-5555-7-7777-|
  . . .        . . .        . . .          ....   ....


Riff 3a
|--------------------------------------------------------------------|
|--------------------------------------------------------------------|
|--------------------------------------------------------------------|
|--------------------------------------------------------------------|
|-555-55-55-55-5-5444-44-44-44-4-4/777-77-77-9---7---555-44-44-44-4--|
|-333-33-33-33-3-3222-22-22-22-2-2/555-55-55---5---5-333-22-22-22-2--|
       .  .  . .        .  .  . .        .  . . . . .      .  .  . .


Riff 3b
|-----------------------------------------------------------------------|
|-----------------------------------------------------------------------|
|-----------------------------------------------------------------------|
|-----------------------------------------------------------------------|
|-4/555-55-55-7---5---444-44-44-44-4-4/777-77-77-9---7---555-44-44-44-4-|
|-2/333-33-33---3---3-222-22-22-22-2-2/555-55-55---5---5-333-22-22-22-2-|
         .  . . . . .      .  .  . .        .  . . . . .      .  .  . .



Riff 4                                    1,3         2                 4
|----------------------------------|---------|---------|-----------------|
|----------------------------------|---------|---------|-----------------|
|----------------------------------|---------|---------|-----------------|
|-2------4---5---7---5-4-7---------|---------|---------|-----------------|
|-2----------------------5----9----|-7/9-9-9-|-95-5-5-|-9-9-9-9-5-5-5-5--|
|-0--------0---0---0----------7----|-5/7-7-7-|-73-3-3-|-7-7-7-7-3-3-3-3--|
           .   .   .                                     . . . .


Riff 2b
|---------------------------------------
|---------------------------------------
|---------------------------------------
|---------------------------------------
|-5-55-----5-55-----4-44-----4-44-----5-
|-3-33-3h6p3-33-3h6p2-22-2h5p2-22-2h5p3-

-------------------------------------|
-------------------------------------|
-------------------------------------|
-------------------------------------|
-55-----5-55-----7-77-7/9-9-99-9-7-5-|
-33-3h6p3-33-3h6p5-55-5/7-7-77-7-5-3-|



Fill 1
|------------------|
|------------------|
|------------------|
|------------------|
|------------------|
|-3-33-33-33-33-33-|
  . .  .  .  .


Fill 2
|-----------------------------------------------------------|
|-----------------------------------------------------------|
|-----------------------------------------------------------|
|-----------------------------------------------------------|
|-----------------------------------------------------------|
|-3-33-33-33-33-33-2-22-22-22-22-22-5-55-55-77-55-54-44-44-|
  . .  .  .  .     . .  .  .  .     . .  .  .  .      .  .


Riff 5 - slow tremolo
|------------------------------------|
|------------------------------------|
|------------------------------------|
|------------------------------------|
|-5"----4"----7"----9"-7"--5"--4"----|
|-3"----2"----5"----7"-5"--3"--2"----|



Fill 3
|-------------------------------------------|
|-------------------------------------------|
|-------------------------------------------|
|-2-------2---4---5---7---5-4---------------|
|-2---------------------------2222222222222-|
|-0---000---0---0---0---0-----0000000000000-|
      ...   .   .   .   .     .............


Ending chord
|-----|
|-----|
|-----|
|-2---|
|-2---|
|-0---|

\m/ Enjoy!
Добавлено: 25.07.2012
Вам также может быть интересно:
Другие материалы по этой песне:

Страница создана 25.02.2012
http://primanota.ru/illdisposed/i-believe-in-me-chords.htm
Привет, Гость.
Предлагаем пройти революционный курс по гитаре.
Подарок от PrimaNota.Ru, забирай!