PrimaNota.ru - самый крупный в мире бесплатный архив песенных текстов, аккордов, табулатур и нот


Ill Niño - Only The Unloved - таба, видео

Регистрация Запомнить меня
Войти через:  Facebook Google Twitter Vk Yandex Mail.ru

Ill Niño - Only The Unloved - таба, видео

Печатать
Просмотров: 162
Уроки эстрадного вокала в Санкт-Петербурге
Ill Nino: Only The Unloved

Transcribed by: mysticguitar77

YouTube Username: MysticGuitar77

Date last modified: February 8, 2013

Tuning: Drop C (C,G,C,F,A,D)

Riff 1   "Come surrender, I'll forgive you..."
D|-----------------------------------|
A|-----------------------------------|
F|-----------------------------------|
C|-0-0-0-0-13p12-0-0-12p10-0-0-13p12-|
G|-----------------------------------|
C|-----------------------------------|
   * * * *       * *       * *

D|---------------------------------------------|
A|---------------------------------------------|
F|---------------------------------------------|
C|-0-0-0-0-13h15-0-0-15h17-0-0-13h15-0-0-12h13-|
G|---------------------------------------------|
C|---------------------------------------------|
   * * * *       * *       * *       * *

D|-----------------------------------|
A|-----------------------------------|
F|-----------------------------------|
C|-0-0-0-0-13p12-0-0-12p10-0-0-13p12-|
G|-----------------------------------|
C|-----------------------------------|
   * * * *       * *       * *

D|------------------------------------------|
A|------------------------------------------|
F|------------------------------------------|
C|-0-0-0-0-12h13-0-0-10h12-0-0-8h10-0-0-5h7-|
G|------------------------------------------|
C|------------------------------------------|
   * * * *       * *       * *      * *

Play Riff 1 x2   "Come surrender, I'll forgive you..."

Riff 2
D|-------------------------------------------------|
A|-------------------------------------------------|
F|-------------------------------------------------|
C|-------------------------------------------------|
G|-------------------------------------------------|
C|-/12-0--0-0-/15-0--0-0-/13-0-10h12p10p0-8h10p8p0-|

D|-----------------------------------------|
A|-----------------------------------------|
F|-----------------------------------------|
C|-----------------------------3-3-3-3-3---|
G|-----------------------------1-1-1-1-1-1-|
C|-/12-0--0-0-/15-0--0-0-/13-0-----------1-|

Play Riff 2 x2

Riff 3   "Welcome vicious, taking victims now..."
D|-----------------------------------------------------|
A|-----------------------------------------------------|
F|-----------------------------------------------------|
C|-1--0--0--0--0-1p0-0--0-1p0-0--0---------------------|
G|-1--0--0--0--0-1p0-0--0-1p0-0--0---------------------|
C|-1--0--0--0--0-1p0-0--0-1p0-0--0-10h12p10p0-8h10p8p0-|

D|---------------------------------------------|
A|---------------------------------------------|
F|---------------------------------------------|
C|-1--0--0--0--0-1p0-0--0-1p0-0--0-3-3-3-3-3---|
G|-1--0--0--0--0-1p0-0--0-1p0-0--0-1-1-1-1-1-1-|
C|-1--0--0--0--0-1p0-0--0-1p0-0--0-----------1-|

Play Riff 3 x2   "Inside them, inside them, just throw your life away..."

Riff 4   "Come surrender, I'll forgive you..."
D|-----------------------------------------------------------------------|
A|-----------------------------------------------------------------------|
F|-----------------------------------------------------------------------|
C|-0-0-0-0-13p12-0-0-12p10-0-0-13p12-0-0-------------------------3h5-----|
G|-----------------------------------------------3h5---------3h5---------|
C|---------------------------------------0-0-0-0-----0-0-0-0---------0-0-|
   * * * *       * *       * *       * * * * * *     * * * *         * *

D|-------------------------------------------------------|
A|-------------------------------------------------------|
F|---------------------------------------8-8-8-8-8-8-8-8-|
C|-0-0-0-0-13p12-0-0-12p10-0-0-13p12-0-0-x-x-x-x-x-x-x-x-|
G|---------------------------------------6-6-6-6-6-6-6-6-|
C|-------------------------------------------------------|
   * * * *       * *       * *       * *

Riff 5 (lead guitar)   "You'll save me, you'll hate me..."
D|-10-10-10-13-13-13-10-10-10-11-11-11-10-10-8-8-|
A|-x--x--x--x--x--x--x--x--x--x--x--x--x--x--x-x-|
F|-7--7--7--10-10-10-7--7--7--8--8--8--7--7--5-5-|
C|-----------------------------------------------|
G|-----------------------------------------------|
C|-----------------------------------------------|

D|-10-10-10-15-15-15-10-10-10-11-11-11-10-10-8-8-|
A|-x--x--x--x--x--x--x--x--x--x--x--x--x--x--x-x-|
F|-7--7--7--12-12-12-7--7--7--8--8--8--7--7--5-5-|
C|-----------------------------------------------|
G|-----------------------------------------------|
C|-----------------------------------------------|

D|-10-10-10-13-13-13-10-10-10-11-11-11-10-10-8-8-|
A|-x--x--x--x--x--x--x--x--x--x--x--x--x--x--x-x-|
F|-7--7--7--10-10-10-7--7--7--8--8--8--7--7--5-5-|
C|-----------------------------------------------|
G|-----------------------------------------------|
C|-----------------------------------------------|

D|-6-6-6-8-8-8-10-10-11-11-11-10-10-10-8-8-|
A|-x-x-x-x-x-x-x--x--x--x--x--x--x--x--x-x-|
F|-3-3-3-5-5-5-7--7--8--8--8--7--7--7--5-5-|
C|-----------------------------------------|
G|-----------------------------------------|
C|-----------------------------------------|

Riff 5 (rhythm guitar)
D|-----------------------------------------------------------------|
A|-----------------------------------------------------------------|
F|-----------------------------------------------------------------|
C|-5-5-5-5-5-5-5-5-5-5-5-5-5-5-5-5-1-1-1-1-1-1-1-1-1-1-1-1-1-1-1-1-|
G|-5-5-5-5-5-5-5-5-5-5-5-5-5-5-5-5-1-1-1-1-1-1-1-1-1-1-1-1-1-1-1-1-|
C|-5-5-5-5-5-5-5-5-5-5-5-5-5-5-5-5-1-1-1-1-1-1-1-1-1-1-1-1-1-1-1-1-|

D|-------------------------------------------------------------------|
A|-------------------------------------------------------------------|
F|-------------------------------------------------8-8-8-7-7-7-------|
C|-5-5-5-5-5-5-5-5-5-5-5-5-5-5-5-5-8-8-8-8-8-8-8-8-x-x-x-x-x-x-10-10-|
G|-5-5-5-5-5-5-5-5-5-5-5-5-5-5-5-5-8-8-8-8-8-8-8-8-6-6-6-6-6-6-6--6--|
C|-5-5-5-5-5-5-5-5-5-5-5-5-5-5-5-5-8-8-8-8-8-8-8-8-------------------|

Play Riff 5 x2   "You loved me, when I believed you..."
Play Riff 2 x2   "I believed in you..."
Play Riff 3 x2   "Multi-faction right before you now..."

Riff 6   "Come surrender, I'll forgive you..."
D|-----------------------------------|
A|-----------------------------------|
F|-----------------------------------|
C|-0-0-0-0-13p12-0-0-12p10-0-0-13p12-|
G|-----------------------------------|
C|-----------------------------------|
   * * * *       * *       * *

D|---------------------------------------------|
A|---------------------------------------------|
F|---------------------------------------------|
C|-0-0-0-0-13h15-0-0-15h17-0-0-13h15-0-0-12h13-|
G|---------------------------------------------|
C|---------------------------------------------|
   * * * *       * *       * *       * *

D|-------------------------------------------------------|
A|-------------------------------------------------------|
F|---------------------------------------8-8-8-8-8-8-8-8-|
C|-0-0-0-0-13p12-0-0-12p10-0-0-13p12-0-0-x-x-x-x-x-x-x-x-|
G|---------------------------------------6-6-6-6-6-6-6-6-|
C|-------------------------------------------------------|
   * * * *       * *       * *       * *

Play Riff 5 x2   "You'll save me, you'll hate me..."

Riff 7
D|---------------|
A|---------------|
F|---------------|
C|-1--0--0-x-x-0-|  x3
G|-1--0--0-x-x-0-|
C|-1--0--0-x-x-0-|

D|-----------------------------|
A|-----------------------------|
F|-----------------------------|
C|-1--0--0---------------------|
G|-1--0--0---------------------|
C|-1--0--0-10h12p10p0-8h10p8p0-|

D|---------------|
A|---------------|
F|---------------|
C|-1--0--0-x-x-0-|   x3
G|-1--0--0-x-x-0-|
C|-1--0--0-x-x-0-|

D|---------------------|
A|---------------------|
F|---------------------|
C|-1--0--0-3-3-3-3-3---|
G|-1--0--0-1-1-1-1-1-1-|
C|-1--0--0-----------1-|

Play Riff 4 x1
Play Riff 5 x2   "You'll save me, you'll hate me..."
Play Riff 2 x2   "I believed in you..."

Ending
D|-------------------|
A|-------------------|
F|-------------------|
C|-3-3-3-3-----------|
G|-1-1-1-1-1-1-1-1-0-|
C|---------1-1-1-1-0-|

Enjoy!!
Добавлено: 30.10.2013
Другие материалы по этой песне:
  • Аккорды и текст

Страница создана 30.10.2013
http://primanota.ru/ill-nino/only-the-unloved-chords.htm
Привет, Гость.
Предлагаем пройти революционный курс по гитаре.
Подарок от PrimaNota.Ru, забирай!