PrimaNota.ru - самый крупный в мире бесплатный архив песенных текстов, аккордов, табулатур и нот


Ill Niño - La Epidemia - таба, видео

Регистрация Запомнить меня
Войти через:  Facebook Google Twitter Vk Yandex Mail.ru

Ill Niño - La Epidemia - таба, видео

Печатать
Просмотров: 165
Ill Nino: La Epidemia

Transcribed by: mysticguitar77

YouTube Username: MysticGuitar77

Date last modified: March 23, 2013

Tuning: Drop C (C,G,C,F,A,D)

Riff 1   "God will you push on me to the light..."
D|------------------------------------------|
A|------------------------------------------|
F|------------------------------------------|
C|-///----------1-0-0-1-0~-------1-0-0-1-0~-|
G|-///pickslide-1-0-0-1-0~-------1-0-0-1-0~-|
C|-///----------1-0-0-1-0~-------1-0-0-1-0~-|

Play Riff 1 x3

Fill 1
D|-------------------------------|
A|-------------------------------|
F|-------------------------------|
C|---------------------1-0-0-1-0-|
G|---------------------1-0-0-1-0-|
C|-000-000-000-000-000-1-0-0-1-0-|
   *** *** *** *** ***

Riff 2   "My death selection..."
D|---------------------------------------------------------------|
A|---------------------------------------------------------------|
F|---------------------------------------------------------------|
C|---------------------------------------------------------------|
G|-0-0-0-----------0-0-0-----------0-0-0-----------0-0-0-1-0-0-1-|
C|-0-0-0-1-0-0-1-0-0-0-0-1-0-0-1-0-0-0-0-1-0-0-1-0-0-0-0-1-0-0-1-|
   * * *           * * *           * * *           * * *

D|-------------------------------------------------------------------|
A|-------------------------------------------------------------------|
F|-------------------------------------------------------------------|
C|-------------------------------------------------------------------|
G|-000-000-000-000-111-111-111-111-666-666-666-666-333-333-1-0-0-1-0-|
C|-000-000-000-000-111-111-111-111-666-666-666-666-333-333-1-0-0-1-0-|
   *** *** *** *** *** *** *** *** *** *** *** *** *** ***

D|---------------------------------------------------------------|
A|---------------------------------------------------------------|
F|---------------------------------------------------------------|
C|---------------------------------------------------------------|
G|-0-0-0-----------0-0-0-----------0-0-0-----------0-0-0-1-0-0-1-|
C|-0-0-0-1-0-0-1-0-0-0-0-1-0-0-1-0-0-0-0-1-0-0-1-0-0-0-0-1-0-0-1-|
   * * *           * * *           * * *           * * *

D|-----------------------------------------------------------------|
A|-----------------------------------------------------------------|
F|-----------------------------------------------------------------|
C|---------------------------------6-6-6-6-6-6-6-6-3-3-3-3-3-3-3-3-|
G|-000-000-000-000-111-111-111-111-6-6-6-6-6-6-6-6-3-3-3-3-3-3-3-3-|
C|-000-000-000-000-111-111-111-111-6-6-6-6-6-6-6-6-3-3-3-3-3-3-3-3-|
   *** *** *** *** *** *** *** ***

2nd Guitar (comes towards the end of this riff)
D|-11----11----|
A|----15----15-|
F|-------------|
C|-------------| (repeat appropriate amount of times and let the notes
G|-------------|  ring out)
C|-------------|

Riff 3   "I give myself to sacrifice..."
D|-----------------------------------------------------------------|
A|---------------------------------------------------------9-9-9-9-|
F|-7-7-7-7-8-8-8-5-7-7-7-7-8-8-8-5-7-7-7-7-8-8-8-5-7-7-7-7---------|
C|-----------------------------------------------------------------|
G|-----------------------------------------------------------------|
C|-----------------------------------------------------------------|

D|---------------------------------------------------------------------|
A|---------------------------------------------------------------------|
F|-7-7-7-7-8-8-8-5-7-7-7-7-8-8-8-5-7---8---5---7---12---11---15---14---|
C|-----------------------------------0---0---0---0----0----0----0----0-|
G|---------------------------------------------------------------------|
C|---------------------------------------------------------------------|

Play Riff 3 x2   "I carry on to live this life..."

Fill 1
D|--------------------|
A|--------------------|
F|--------------------|
C|-1-0-1-3-4-3-1-3-0~-|
G|-1-0-1-3-4-3-1-3-0~-|
C|-1-0-1-3-4-3-1-3-0~-|
   *

Play Riff 1 x1
Play Riff 2 x1   (note: the triplet pattern changes this time around, listen
                  to the song for the timing changes, the notes remain the
                  same, just the rhythm changes slightly)
Play Riff 3 x2   "I give myself to sacrifice..."
Play Fill 1 x1

Fill 2
D|--------------------|
A|--------------------|
F|-------------3-2----|
C|---------5-4-----0~-|
G|-5-6-3-5---------0~-|
C|-----------------0~-|
   * *

Play Riff 1 x2   "...everyday it's getting worse..."

Riff 4
D|-------------------------------------------------|
A|-------------------------------------------------|
F|-------------------------------------------------|
C|-------------------------------------------------|
G|-------------------------------------------------|
C|-0-0-0-x-0-x-0-0-0-x-1-x-0-0-0-x-0-x-0-0-6-0-0-3-|
                                             * *

D|-------------------------------------------------|
A|-------------------------------------------------|
F|---------------------8---------------------------|
C|---------------------x---------------------------|
G|---------------------6---------------------------|
C|-0-0-0-x-0-x-0-0-0-x---x-0-0-0-x-0-x-0-0-6-0-0-3-|
                                             * *

Play Riff 4 x4

Lead Fill (w/ wah)
D|-----------------|
A|-----------------|
F|-14'-15'-17'-19'-|
C|-----------------| (' = tremolo pick)
G|-----------------|
C|-----------------|

Riff 5
D|-----------------------------------------------------------------|
A|-----------------------------------------------------------------|
F|-----------------------------------------------------------------|
C|-----------------------------------------------------------------|
G|-------------------------------------------------------1---------|
C|-000-000-000-000-000-000-000-000-1-0-1-3-4-3-1-3-3-1-3---3-1-0-1-|
   *** *** *** *** *** *** *** ***

Play Riff 5 x2
Play Riff 3 x2   "I give myself to sacrifice..."
Play Fill 1 x1
Play Fill 2 x1

Ending   "La epidemia!!"
D|------------------------------------------|
A|------------------------------------------|
F|------------------------------------------|
C|-///-----------0~-///-----------1-0-0-1-0-|
G|-///-pickslide-0~-///-pickslide-1-0-0-1-0-|
C|///------------0~-///-----------1-0-0-1-0-|

Enjoy!!
Добавлено: 06.08.2013
Другие материалы по этой песне:
  • Аккорды и текст

Страница создана 06.08.2013
http://primanota.ru/ill-nino/la-epidemia-chords.htm
Привет, Гость.
Предлагаем пройти революционный курс по гитаре.
Подарок от PrimaNota.Ru, забирай!