PrimaNota.ru - самый крупный в мире бесплатный архив песенных текстов, аккордов, табулатур и нот


Ill Niño - In This Moment - текст песни, таба, видео

Регистрация Запомнить меня
Войти через:  Facebook Google Twitter Vk Yandex Mail.ru

Ill Niño - In This Moment - текст песни, таба, видео

Печатать
Просмотров: 144
This tab maybe good but i did my best to write it
All guitars tune Drop (c)


Intro Riff A

D-----------------------------------------------|
A-----------------------------------------------|
F-----------------------------------------------|repeat x4
C-----------------------------------------------|
D--------------------77--------------------7777-|
C--4444-5555-444-55-----555-4444-5555-4444------|
P.M.... .... ... ..     ... .... .... ....

Verse Riff B

D-------------------------------------------------|
A-------------------------------------------------|
F-------------------------------------------------|
C---------------9------------------9--9-----------|repeat x4
D--4--5--4-4----7--5---4--5--4-4---7--7-----------|
C--4--5--4-4-------5---4--5--4-4------------------|

D---------------------------------------------|
A---------------------------------------------|
F---------------------------------------------|
C-9-~~~~~~~~~~~~~~~---------------------------|
D-9-~~~~~~~~~~~~~~~let ring out---------------|
C-9-~~~~~~~~~~~~~~~---------------------------|

Chorus Riff C

D-------------------------------------------|
A-------------------------------------------|
F-------------------------------------------|repeat x8
C-9--9-9---4--4-4---5--5-5---2--2-2---------|
D-9--9-9---4--4-4---5--5-5---2--2-2---------|
C-9--9-9---4--4-4---5--5-5---2--2-2---------|

Back to Riff A repeat x2

Then to Riff b repeat x4

Then Chorus Riff C repeat x8

Acoustic guitar Riff D

D---------------------|
A---------------------|
F---------------------|
C--4--4--4------------|repeat x4
D--4--4--4------------|
C--4--4--4------------|

Solo Riff E

D-9999--10-12-9-10-12 12/14-121212--------12------12---------8/9---|
A-----------------------------------14-12---14-12---14-12-10-------|
F------------------------------------------------------------------|
C------------------------------------------------------------------|
D------------------------------------------------------------------|
C------------------------------------------------------------------|

D-9999--10-12-9-10-12-12/14-121212-------12----------------------------|
A----------------------------------14-12-----10-10-12-13-12-10-8-7/10--|
F----------------------------------------------------------------------|
C----------------------------------------------------------------------|
D----------------------------------------------------------------------|
C----------------------------------------------------------------------|


Then back to Chorus repeat x8

and finish in this cord
D--------------------|
A--------------------|
F-4------------------|
C-4--let ring out----|
D-2------------------|
C--------------------|
Добавлено: 27.10.2013
Другие материалы по этой песне:
  • Аккорды и текст

Страница создана 04.03.2012
http://primanota.ru/ill-nino/in-this-moment-chords.htm
Привет, Гость.
Предлагаем пройти революционный курс по гитаре.
Подарок от PrimaNota.Ru, забирай!