PrimaNota.ru - самый крупный в мире бесплатный архив песенных текстов, аккордов, табулатур и нот


Ill Niño - If You Still Hate Me - аккорды и текст, таба, бас-таба, видео

Регистрация Запомнить меня
Войти через:  Facebook Google Twitter Vk Yandex Mail.ru

Ill Niño - If You Still Hate Me - аккорды и текст, таба, бас-таба, видео

Печатать
Просмотров: 151
If You Still Hate Me
Ill Niño
ILL NiСо : If you still Hate me : Tuning (C-G-C-F-A-D)
  
Intro: G
A|-----|
D|-----|
F|-----|
C|-0-0-|x4
G|-0-0-|
C|-0-0-|
                                                                
Intro: G 
F|-7-7-xxxx-10-9-9-9-xxxx-11-10-10-10-xxxx-14-14-13-13-13-11-11-|
C|-x-x-xxxx--x-x-x-x-xxxx--x--x--x--x-xxxx--x--x--x--x--x--x--x-|x4
G|-5-5-xxxx--8-7-7-7-xxxx--9--8--8--8-xxxx-12-12-11-11-11--9--9-|

Pre Verse: G-G
C|-1-01-1-01-01-1-01-01-1-01-0-3-|
G|-1-01-1-01-01-1-01-01-1-01-0-3-|x4
C|-1-01-1-01-01-1-01-01-1-01-0-3-|
                                
Verse: G-G                         Wah on this part.......
D|------------|  |-----------------------------3-3-3-4-4-4-|
F|------------|  |-----------------3-3-3-5-5-5-0-0-0-0-0-0-|
C|-1-00-1-1-0-|x4|-1-00-1-1-000000-0-0-0-0-0-0-0-0---0-0-0-|
G|-1-00-1-1-0-|  |-1-00-1-1-000000---0-0---0-0-------------|
C|-1-00-1-1-0-|  |-1-00-1-1-000000-------------------------|

Chorus: G-G                         Wah on this part.......
D|-------------------------------|  |-------------3-3-3-4-4-4-|
F|-------------------------------|  |-3-3-3-5-5-5-0-0-0-0-0-0-|
C|-------------------------------|x4|-0-0-0-0-0-0-0-0---0-0-0-|
G|-------------------------------|  |-0---0---0-0-------------|
C|-1-000-4-0-1-3-00-1-000-4-0000-|  |-------------------------|

Repeat Pre verse x2  G-G  
Repeat Verse     x2  G-G
Repeat Chorus    x4  G-G
  
Bridge: 
C|-0-0-|
G|-0-0-|x8
C|-0-0-|

Bridge: G
F|-7-7-xxxx-10-9-9-9-xxxx-11-10-10-10-xxxx-14-14-13-13-13-11-11-|
C|-x-x-xxxx--x-x-x-x-xxxx--x--x--x--x-xxxx--x--x--x--x--x--x--x-|
G|-5-5-xxxx--8-7-7-7-xxxx--9--8--8--8-xxxx-12-12-11-11-11--9--9-|x4

Pre outro: G-G
G|-1-0--------------------------------------------------|
C|-1-000-4-0-1-3-00-1-000-4-0000-1-000-4-0-1-3-00-1-000-|

Outro: G-G                          Wah on this part.......
D|-------------------------------|  |-------------3-3-3-4-4-4-|
F|-------------------------------|  |-3-3-3-5-5-5-0-0-0-0-0-0-|
C|-1-000---0-1-3-00-1-000---0000-|  |-0-0-0-0-0-0-0-0---0-0-0-|
G|-1-000---0-1-3-00-1-000---0000-|x4|-0---0---0-0-------------|
C|-1-000-4-0-1-3-00-1-000-4-0000-|  |-------------------------|


Finish: G-G
D|-------------3-3-3-4-4-4-----|
F|-3-3-3-5-5-5-0-0-0-0-0-0-----|
C|-0-0-0-0-0-0-0-0---0-0-0-1-0-|
G|-0---0---0-0-------------1-0-|
C|-------------------------1-0-|

End
Tabed by Nur-Karim
Добавлено: 16.05.2012
Другие материалы по этой песне:
  • Аккорды и текст

Страница создана 11.04.2012
http://primanota.ru/ill-nino/if-you-still-hate-me-chords.htm
Привет, Гость.
Предлагаем пройти революционный курс по гитаре.
Подарок от PrimaNota.Ru, забирай!