PrimaNota.ru - самый крупный в мире бесплатный архив песенных текстов, аккордов, табулатур и нот


Ill Niño - Guerrilla Carnival - таба, видео

Регистрация Запомнить меня
Войти через:  Facebook Google Twitter Vk Yandex Mail.ru

Ill Niño - Guerrilla Carnival - таба, видео

Печатать
Просмотров: 72
Ill Nino: Guerrilla Carnival

Transcribed by: Andrew Zara (disturbedfreak0520@yahoo.com)

Date last modified: March 20, 2008

PLEASE DO NOT COPY THIS TAB TO ANOTHER SITE
WITHOUT AUTHORS' PERMISSION. THANK YOU.

Tuning: Drop D (D,A,D,G,B,E)

Riff 1
Guitar 1 (Clean)
E|-----------------------------------------------------------------|
B|-------3-----4---------1-----0---------4-----3-----6-----1---0---|
G|---0-----0-----0---0-----0-----0---0-----0-----0-----0-----0---0-|
D|-1---1-----1-----3---3-----3-----5---5-----5-----5-----5---------|
A|-----------------------------------------------------------------|
D|-----------------------------------------------------------------|

E|------------------------------------|
B|-------3-----4---------1-----0---3~-|
G|---0-----0-----0---0-----0-----0-0~-|
D|-1---1-----1-----3---3-----3-----5~-|
A|------------------------------------|
D|------------------------------------|

Riff 1
Guitar 2 (Clean)
E|------------------------------------|
B|------------------------------------|
G|---------------------------------7~-|
D|---------------------------------5~-|
A|---------------------------------5~-|
D|---------------------------------5~-|

Riff 2
E|----------------------------------------------------------------------|
B|----------------------------------------------------------------------|
G|----------------------------------------------------------------------|
D|-0--0-0-0-0-0-0-0--0-0-0-0-0-0-0-0-0-7-7-7-6-6-6-13-13-13-12-12-10-10-|
A|-0--0-0-0-0-0-0-0--0-0-0-0-0-0-0-0-0-7-7-7-6-6-6-13-13-13-12-12-10-10-|
D|-0--0-0-0-0-0-0-0--0-0-0-0-0-0-0-0-0-7-7-7-6-6-6-13-13-13-12-12-10-10-|
      * * * * * *    * * * * * *  

Riff 3
Guitar 1   "...feeling like I'm twisted, I gotta find..."
E|---------------------------------------------------|
B|---------------------------------------------------|
G|---------------------------------------------------|
D|-7-7-7-7-7-8-8-8-8-8-10-10-10-10-10-12-12-12-12-12-|
A|-7-7-7-7-7-8-8-8-8-8-10-10-10-10-10-12-12-12-12-12-|
D|-7-7-7-7-7-8-8-8-8-8-10-10-10-10-10-12-12-12-12-12-|

E|---------------------------------------------------|
B|---------------------------------------------------|
G|---------------------------------------------------|
D|-7-7-7-7-7-8-8-8-8-8-10-10-10-10-10-10-10-10-10-10-|
A|-7-7-7-7-7-8-8-8-8-8-10-10-10-10-10-10-10-10-10-10-|
D|-7-7-7-7-7-8-8-8-8-8-10-10-10-10-10-10-10-10-10-10-|

Riff 3
Guitar 2
E|-----------------------------------------------------------|
B|-----------------------------------------------------------|
G|-----------------------------------------------------------|
D|---------7-----------7-------------7--------------12-------|
A|-----7-----7-----7-----7------7------7-------12------12----|
D|-7-7---7-----7-8---8-----7-10---10-----10-12----12------12-|
   * * * *     * * * *     * *  * *      *  *  *  *       *

E|--------------------------------------------------------|
B|--------------------------------------------------------|
G|--------------------------------------------------------|
D|---------7-----------7-------------7-------------7------|
A|-----7-----7-----7-----7------7------7------7------7----|
D|-7-7---7-----7-8---8-----7-10---10-----7-10---10-----10-|
   * * * *     * * * *     * *  * *      * *  * *      *

Play Riff 2
Play Riff 3   "...feeling like I'm twisted, I'm gotta find..."
Play Riff 1

Riff 4
Guitar 2 (Clean)
E|-------------------------------------|
B|-------------------------------------|
G|-------------------------------------|
D|-12-13-12-13-12-13-12-13-12-13-12-13-|
A|-------------------------------------|
D|-------------------------------------|
   *  *  *  *  *  *  *  *  *  *  *  *

Riff 5   "Let it go..."
E|--------------------|
B|--------------------|
G|--------------------|
D|-1-1-1---3-3-3---5~-|
A|-1-1-1---3-3-3---5~-|
D|-1-1-1---3-3-3---5~-|

Riff 6   "Complicated..."
E|---------------------------------------------------|
B|---------------------------------------------------|
G|-7-7-7-7-7-8-8-8-8-8-10-10-10-10-10-12-12-12-12-12-|
D|-7-7-7-7-7-8-8-8-8-8-10-10-10-10-10-12-12-12-12-12-|
A|-5-5-5-5-5-6-6-6-6-6-8--8--8--8--8--10-10-10-10-10-|
D|---------------------------------------------------|

E|---------------------------------------------------|
B|---------------------------------------------------|
G|-7-7-7-7-7-8-8-8-8-8-10-10-10-10-10-10-10-10-10-10-|
D|-7-7-7-7-7-8-8-8-8-8-10-10-10-10-10-10-10-10-10-10-|
A|-5-5-5-5-5-6-6-6-6-6-8--8--8--8--8--8--8--8--8--8--|
D|---------------------------------------------------|

Play Riff 3   "...feeling like I'm twisted, I gotta find..."
Play Riff 2


Notation:

10^        = bend a quarter step.
10b11      = bend a half step.
10b12      = bend a full step.
10b12r10   = bend and release.
[10]12     = pre-bend.
[10]12r10  = pre-bend and release.
{14}       = pick the 14th fret while holding the most 
             previous bend.
<17>       = touch the string above the 17th fret while 
             previous note(s) is(are) still ringing.

10b13*     = tremolo bar bend, from the 10th fret to the 13th fret.
7d4*       = tremolo bar dive, from the 7th fret to the 4th fret. 
12~*       = tremolo bar vibrato.

x   =  mute with fret-hand
*   =  palm mute
X\\ =  pick slide
h   =  hammer-on
p   =  pull-off
~   =  vibrato
t   =  finger tap
/   =  slide up
\   =  slide down
h.  =  natural harmonics
a   =  artificial harmonics
(9) =  ghost note
tm  =  trem picking
tr  =  trill
Добавлено: 20.06.2013
Другие материалы по этой песне:
  • Аккорды и текст

Страница создана 20.06.2013
http://primanota.ru/ill-nino/guerrilla-carnival-chords.htm
Привет, Гость.
Предлагаем пройти революционный курс по гитаре.
Подарок от PrimaNota.Ru, забирай!