PrimaNota.ru - самый крупный в мире бесплатный архив песенных текстов, аккордов, табулатур и нот


Ill Niño - Demi-god - таба, видео

Регистрация Запомнить меня
Войти через:  Facebook Google Twitter Vk Yandex Mail.ru

Ill Niño - Demi-god - таба, видео

Печатать
Просмотров: 75
Ill Nino: Demi-God

Transcribed by: mysticguitar77

YouTube Username: MysticGuitar77

Date last modified: March 22, 2013

Tuning: Drop C (C,G,C,F,A,D)

Notes: Mostly the main guitar will be tabbed, some of the 2nd guitar parts
       won't.

Riff 1 (let all notes ring out)
D|----10----10----10----10-11-10----10-11-10----10-|
A|-13----13----13----13----------13----------13----|
F|-------------------------------------------------|
C|-------------------------------------------------|
G|-------------------------------------------------|
C|-------------------------------------------------|

D|----10----10----10--------8-----10----10----|
A|-13----13----13----13--11---11-----11----11-|
F|--------------------------------------------|
C|--------------------------------------------|
G|--------------------------------------------|
C|--------------------------------------------|
                     ^ ends here final time

Play Riff 1 x4

Fill 1
D|---------------------------------|
A|---------------------------------|
F|---------------------------------|
C|-4-4-4-1-1-1-3-3-4-4-4-1-1-1-3-3-|
G|-4-4-4-1-1-1-3-3-4-4-4-1-1-1-3-3-|
C|-4-4-4-1-1-1-3-3-4-4-4-1-1-1-3-3-|
   * * * * * * * * * * * * * * * *

Riff 2
D|---------------------------------------------------------|
A|---------------------------------------------------------|
F|---------------------------------------------------------|
C|-00000~--0000-00000~--0000-00000~--0000--0-1-1-3-3-3-3-4-|
G|-00000~--0000-00000~--0000-00000~--0000--0-1-1-3-3-3-3-4-|
C|-00000~--0000-00000~--0000-00000~--0000--0-1-1-3-3-3-3-4-|
   *****   **** *****   **** *****   ****  * * * * * * * *

Riff 3   "Sinco, sinco..."
D|----------------|
A|----------------|
F|--------8\7-5/7-|
C|--------x-x-x-x-| x3
G|--------6\5-3/5-|
C|-11110----------|
   ****

D|-----------------------------------------------|
A|-----------------------------------------------|
F|-----------------------------------------------|
C|-----------------------------------------------|
G|-------------------10-10-9-9-------------------|
C|-13-13-10-10-13-13-----------13-13-12-12-10-10-|
   *  *  *  *  *  *  *  *  * * *  *  *  *  *  *

D|----------------|
A|----------------|
F|--------8\7-5/7-|
C|--------x-x-x-x-| x3
G|--------6\5-3/5-|
C|-11110----------|
   ****

D|---------------------------------------------|
A|---------------------------------------------|
F|---------------------------------------------|
C|---------------------------------------------|
G|---------------------------------------------|
C|-13-13-10-10-13-13-10-10-12-12-8-8-10-10-7-7-|
   *  *  *  *  *  *  *  *  *  *  * * *  *  * *

D|----------------|
A|----------------|
F|--------8\7-5/7-|
C|--------x-x-x-x-| x3
G|--------6\5-3/5-|
C|-11110----------|
   ****

D|-----------------------------------------------|
A|-----------------------------------------------|
F|-----------------------------------------------|
C|-----------------------------------------------|
G|-------------------10-10-9-9-------------------|
C|-13-13-10-10-13-13-----------13-13-12-12-10-10-|
   *  *  *  *  *  *  *  *  * * *  *  *  *  *  *

D|----------------|
A|----------------|
F|--------8\7-5/7-|
C|--------x-x-x-x-| x3
G|--------6\5-3/5-|
C|-11110----------|
   ****

D|---------------------------------------------|
A|---------------------------------------------|
F|---------------------------------------------|
C|---------------------------------------------|
G|---------------------------------------------|
C|-13-13-10-10-13-13-10-10-12-12-8-8-10-10-7-7-|
   *  *  *  *  *  *  *  *  *  *  * * *  *  * *

D|-----------------------------------------------|
A|-----------------------------------------------|
F|-----------------------------------------------|
C|-----------------------------------------------|
G|-------------------10-10-9-9-------------------|
C|-13-13-10-10-13-13-----------13-13-12-12-10-10-|
   *  *  *  *  *  *  *  *  * * *  *  *  *  *  *

Riff 4   "You left a spike in the war..."
D|---------------------------------------------------------------|
A|---------------------------------------------------------------|
F|---------------------------------------------------------------|
C|-7-7-7--7-7-7-7-7-7-7--7-7-7\--3-3-3-3-3-3-3-3-3-3-3-3-3-3-3-3-|
G|-7-7-7--7-7-7-7-7-7-7--7-7-7\--3-3-3-3-3-3-3-3-3-3-3-3-3-3-3-3-|
C|-7-7-7--7-7-7-7-7-7-7--7-7-7\--3-3-3-3-3-3-3-3-3-3-3-3-3-3-3-3-|
          * *            * *

D|-----------------------------------------------------------|
A|-----------------------------------------------------------|
F|-----------------------------------------------------------|
C|-7-7-7--7-7-7-7-7-7-7--7-7-7\------------------------------|
G|-7-7-7--7-7-7-7-7-7-7--7-7-7\------------------------------|
C|-7-7-7--7-7-7-7-7-7-7--7-7-7\--0-0-0-0-0-0-0-0-8-8-8-8-8-8-|
          * *            * *

Play Riff 4 x2   "You left a spike in the war..."
Play Riff 2 x1

2nd Guitar Fill:
D|-11----11-----|
A|----15----15~-|
F|--------------|
C|--------------|
G|--------------|
C|--------------|

Play Riff 3 x1   "No one surrender..."

Very end of Riff 3 this time:
D|-------------------------------------|
A|-------------------------------------|
F|-------------------------------------|
C|-8-8-5-5-8-8-11-11-10-10-8-8-7-7-5-5-|
G|-------------------------------------|
C|-------------------------------------|
   * * * * * * *  *  *  *  * * * * * *

Play Riff 4 x2   "You left a spike in the war..."
Play Riff 1 x4

Riff 5
D|-----------------------------------------------------------------------|
A|-----------------------------------------------------------------------|
F|-----------------------------------------------------------------------|
C|-00000~--0000-00000~--0000-00000~--0000-8-8-5-5-8-8-11-11-10-10-887755-|
G|-00000~--0000-00000~--0000-00000~--0000--------------------------------|
C|-00000~--0000-00000~--0000-00000~--0000--------------------------------|
   *****   **** *****   **** *****   **** * * * * * * *  *  *  *  ******

D|------------------------------|
A|------------------------------|
F|------------------------------|
C|-00000~--0000-00000~--0000-1~-|  (the 2nd guitar plays that fill again
G|-00000~--0000-00000~--0000-1~-|   somewhere during this riff)
C|-00000~--0000-00000~--0000-1~-|
   *****   **** *****   **** *

Riff 6
D|-----------|
A|---------9-|
F|---------7-|
C|-000-0-0-6-| x3
G|-000-0-0---|
C|-000-0-0---|
   *** * *

D|-----------------|
A|-------7-6-------|
F|-8-5-8-----8-7-5-|
C|-----------------|
G|-----------------|
C|-----------------|

Play Riff 6 x2

Riff 7
D|-------------------------------------------|
A|-------------------------------------------|
F|-------------------------------------------|
C|-000000-000000-000000-000000-000000-000000-|
G|-000000-000000-000000-000000-000000-000000-|
C|-000000-000000-000000-000000-000000-000000-|
   ****** ****** ****** ****** ****** ******

D|-----------------------------------------------|
A|-----------------------------------------------|
F|-----------------------------------------------|
C|-----------------------------------------------|
G|-------------------10-10-9-9-------------------|
C|-13-13-10-10-13-13-----------13-13-12-12-10-10-|
   *  *  *  *  *  *  *  *  * * *  *  *  *  *  *

Play Riff 7 x2

Riff 8
D|------|
A|------|
F|------|
C|-1-0~-|
G|-1-0~-|
C|-1-0~-|

Play Riff 8 x4 (the 1st and last time palm mute the 1-1-1)

Enjoy!!
Добавлено: 25.07.2013
Другие материалы по этой песне:
  • Аккорды и текст

Страница создана 25.07.2013
http://primanota.ru/ill-nino/demi-god-chords.htm
Привет, Гость.
Предлагаем пройти революционный курс по гитаре.
Подарок от PrimaNota.Ru, забирай!