PrimaNota.ru - самый крупный в мире бесплатный архив песенных текстов, аккордов, табулатур и нот


Ill Niño - Death Wants More - таба, видео

Регистрация Запомнить меня
Войти через:  Facebook Google Twitter Vk Yandex Mail.ru

Ill Niño - Death Wants More - таба, видео

Печатать
Просмотров: 144
Ill Nino: Death Wants More

Transcribed by: mysticguitar77

YouTube Username: MysticGuitar77

Date last modified: February 8, 2013

Tuning: Drop C (C,G,C,F,A,D)

Riff 1
D|-------------------------------------------------------|
A|-------5h6p5---5h6p5---5h6p5---5h6p5---5h6p5---5h6p5---|
F|-------------7-------7-------7-------7-------7-------7-|
C|-2-0-2-------------------------------------------------|
G|-2-0-2-------------------------------------------------|
C|-2-0-2-------------------------------------------------|

D|--------------------------------------------------|
A|--------------------------------------------------|
F|--------------------------------------------------|
C|-2-0-2-3--10-10-9-9-10-10-12-12-10-10-9-9-7-7-5-5-|
G|-2-0-2-3------------------------------------------|
C|-2-0-2-3------------------------------------------|
   * * *    *  *  * * *  *  *  *  *  *  * * * * * *

Play Riff 1 x2

Riff 2 (clean)   "Tell me, would you kill for me?"
D|-------------------------------------------------|
A|-------------------------------------------------|
F|------------------------------------10-10-10-9~--|
C|-7--10-10-10-10\9--3--7-7-7-7\5--0--10-10-10-10~-|
G|-7--7--7--7--7--7--3--3-3-3-3-3--0---------------|
C|-7--7--7--7--7--7--3--3-3-3-3-3--0---------------|

Play Riff 2 x4   "I can bridge your suffering..."

Fill 1 (distortion)   "I can be the one to make you see..."
D|-----------------|
A|-----------------|
F|-----------------|
C|-0-0-0-0-0-0-0-0-|
G|-0-0-0-0-0-0-0-0-|
C|-0-0-0-0-0-0-0-0-|
   * * * * * * * *

Play Riff 1 x2   "The truth is getting clearer..."

Riff 3   "I can be your misery..."
D|--------------------------------------------------|
A|--------------------------------------------------|
F|--------------------------------------------------|
C|-7-7-7--7-7-3-3-3--3-3-0-0-0--0-0-3-3-3-3-5-5-5-5-|
G|-7-7-7--7-7-3-3-3--3-3-0-0-0--0-0-3-3-3-3-5-5-5-5-|
C|-7-7-7--7-7-3-3-3--3-3-0-0-0--0-0-3-3-3-3-5-5-5-5-|
          * *        * *            * * * * * * * *

D|----------------------------------------------|
A|----------------------------------------------|
F|----------------------------------------------|
C|-7-7-7--7-7-3-3-3--3-3-0-0-0-0--0-0-5-5-5-3-3-|
G|-7-7-7--7-7-3-3-3--3-3-0-0-0-0--0-0-5-5-5-3-3-|
C|-7-7-7--7-7-3-3-3--3-3-0-0-0-0--0-0-5-5-5-3-3-|
          * *        * *              * * *

D|---------------------------------------------------|
A|---------------------------------------------------|
F|---------------------------------------------------|
C|-7-7-7--7-7-3-3-3-3-3-3-0-0-0--0-0-3-3-333-5-5-555-|
G|-7-7-7--7-7-3-3-3-3-3-3-0-0-0--0-0-3-3-333-5-5-555-|
C|-7-7-7--7-7-3-3-3-3-3-3-0-0-0--0-0-3-3-333-5-5-555-|
          * *     * * * *            * * *** * * ***

D|------------------------------------------------|
A|------------------------------------------------|
F|------------------------------------------------|
C|-7-7-7--7-7-3-3-3--3-3-0-0-0-0--0-0-5-5-5-3-3-3-|
G|-7-7-7--7-7-3-3-3--3-3-0-0-0-0--0-0-5-5-5-3-3-3-|
C|-7-7-7--7-7-3-3-3--3-3-0-0-0-0--0-0-5-5-5-3-3-3-|
          * *        * *              

Riff 4
D|---------------------------------------------|
A|-------5h6p5---5h6p5---------5h6p5---5h6p5---|
F|-------------7-------7-------------7-------7-|
C|-2-2-2-----------------2-2-2-----------------|
G|-2-2-2-----------------2-2-2-----------------|
C|-2-2-2-----------------2-2-2-----------------|

D|--------------------------------------------------|
A|--------------------------------------------------|
F|--------------------------------------------------|
C|-2-0-2-3--10-10-9-9-10-10-12-12-10-10-9-9-7-7-5-5-|
G|-2-0-2-3------------------------------------------|
C|-2-0-2-3------------------------------------------|
   * * *    *  *  * * *  *  *  *  *  *  * * * * * *

Play Riff 4 x2
Play Riff 2 x4   "Never will you pity me..."
Play Riff 4 x2   "The facts are getting clearer..."
Play Riff 3 x1   "I can be your misery..."

Riff 5
D|-----------------------------------------------------|
A|-----------------------------------------------------|
F|---------10-10-10-10-9-9-9-9---------9-9-9-9-7-7-7-7-|
C|-2-2-2-2-x--x--x--x--x-x-x-x-2-2-2-2-x-x-x-x-x-x-x-x-|
G|-2-2-2-2-8--8--8--8--7-7-7-7-2-2-2-2-7-7-7-7-5-5-5-5-|
C|-2-2-2-2---------------------2-2-2-2-----------------|
   * * * *                     * * * *

D|----------------------|
A|----------------------|
F|----------------------|
C|-2-0-2-3--3-3-3-3-3-3-|
G|-2-0-2-3--3-3-3-3-3-3-|
C|-2-0-2-3--3-3-3-3-3-3-|
   * * *

Play Riff 5 x2   "That is not what I can do for you..."

Solo
D|--------------------------------------------------|
A|-17-17-17-18-17-15----/15-15-15\--------15/17-17~-|
F|-------------------14------------/14-14-----------|
C|--------------------------------------------------|
G|--------------------------------------------------|
C|--------------------------------------------------|

D|----------------------------------13-----13------------|
A|-10---10/13-12~--/13-12-/20~--/17----17-----17-/15-13~-|
F|----9--------------------------------------------------|
C|-------------------------------------------------------|
G|-------------------------------------------------------|
C|-------------------------------------------------------|

Riff 6   "Start a war, start a war, death wants more..."
D|-----------------------------------------------------------------|
A|-----------------------------------------------------------------|
F|-----------------------------------------------------------------|
C|-7-7-7-7-7-7-7-7-3-3-3-3-3-3-3-3-0-0-0-0-0-0-0-0-3-3-3-3-5-5-5-5-|
G|-7-7-7-7-7-7-7-7-3-3-3-3-3-3-3-3-0-0-0-0-0-0-0-0-3-3-3-3-5-5-5-5-|
C|-7-7-7-7-7-7-7-7-3-3-3-3-3-3-3-3-0-0-0-0-0-0-0-0-3-3-3-3-5-5-5-5-|

D|-----------------------------------------------------------------|
A|-----------------------------------------------------------------|
F|-----------------------------------------------------------------|
C|-7-7-7-7-7-7-7-7-3-3-3-3-3-3-3-3-0-0-0-0-0-0-0-0-5-5-5-5-3-3-3-3-|
G|-7-7-7-7-7-7-7-7-3-3-3-3-3-3-3-3-0-0-0-0-0-0-0-0-5-5-5-5-3-3-3-3-|
C|-7-7-7-7-7-7-7-7-3-3-3-3-3-3-3-3-0-0-0-0-0-0-0-0-5-5-5-5-3-3-3-3-|

Play Riff 6 x2   "Start a war, start a war, death wants more!!!"

Ending
D|-----------------------------------|
A|--------\-\-\-------\-\-\----------|
F|--------\-\-\-------\-\-\----------|
C|-2-2-2--------2-2-2-------2-0-2-3\-|
G|-2-2-2--------2-2-2-------2-0-2-3\-|
C|-2-2-2--------2-2-2-------2-0-2-3\-|
          ^ ^ ^       ^ ^ ^ * * *
               fast pickslides

Enjoy!!
Добавлено: 15.08.2013
Другие материалы по этой песне:
  • Аккорды и текст

Страница создана 15.08.2013
http://primanota.ru/ill-nino/death-wants-more-chords.htm
Привет, Гость.
Предлагаем пройти революционный курс по гитаре.
Подарок от PrimaNota.Ru, забирай!