PrimaNota.ru - самый крупный в мире бесплатный архив песенных текстов, аккордов, табулатур и нот


Ill Niño - De La Vida - текст песни, таба, видео

Регистрация Запомнить меня
Войти через:  Facebook Google Twitter Vk Yandex Mail.ru

Ill Niño - De La Vida - текст песни, таба, видео

Печатать
Просмотров: 140
Ill Nino: De La Vida

Transcribed by: Andrew Zara (disturbedfreak0520@yahoo.com)

Date last modified: May 31, 2007

PLEASE DO NOT COPY THIS TAB TO ANOTHER SITE
WITHOUT AUTHORS' PERMISSION. THANK YOU.

Tuning: Drop C (C,G,C,F,A,D)

Riff 1
D|----------------------------------------------|
A|----------------------------------------------|
F|-----7\5-7\5-8/10\8----------7\5-7\5-8/10\8---|
C|-3-5-x-x-x-x-x-x--x-6----3-5-x-x-x-x-x-x--x-6-|
G|-3-5-5\3-5\3-6/8\\6-6----3-5-5\3-5\3-6/8\\6-6-|
C|-3-5----------------6----3-5----------------6-|

Riff 2
D|--------------------------------------------------------------------|
A|--------------------------------------------------------------------|
F|-----7\5-7\5-8/10\8------------------7\5-7\5-8/10\8-----------------|
C|-3-5-x-x-x-x-x-x--x-6-0-6-0-5h6-0----x-x-x-x-x-x--x-6-0-6-0-5h6-0---|
G|-3-5-5\3-5\3-6/8\\6-6-0-6-0-5h6-0-5--5\3-5\3-6/8\\6-6-0-6-0-5h6-0-5-|
C|-3-5----------------6-0-6-0-5h6-0-0-----------------6-0-6-0-5h6-0-0-|

Riff 3   "Your way..."
D|----------------------------------------------|
A|----------------------------------------------|
F|-----7-8-8--5-5--7----------7-8-8--5-5--7-----|
C|-------------------8-8--------------------8-8-|
G|-5-5--------------------5-5-------------------|
C|----------------------------------------------|

Riff 4   "Maybe why..."
D|-------------------------------------------------------|
A|-------------------------------------------------------|
F|-------7-7-7-8-8-8-8-8-8-5-5-5-5-5-5-7-7-7-------------|
C|-------------------------------------------8-8-8-8-8-8-|
G|-5-5-5-------------------------------------------------|
C|-------------------------------------------------------|
   * * * * * * * * * * * * * * * * * * * * * * * * * * *

Play Riff 2   "Lie to me!"

Riff 5   "When everything is said and done..."
D|----------------------------------|
A|----------------------------------|
F|----------------------------------|
C|-3-5-6-6-6-6-6-6--3-5-6-6-6-6-6-6-|
G|-3-5-6-6-6-6-6-6--3-5-6-6-6-6-6-6-|
C|-3-5-6-6-6-6-6-6--3-5-6-6-6-6-6-6-|

Riff 6   "...my soul..."
Guitar 1
D|-----------------------------------------|
A|-----------------------------------------|
F|-----------------------------------------|
C|-3-5-0-0-0-0-0-0-3-3-3-3-3-3-6-6-6-6-6-6-|
G|-3-5-0-0-0-0-0-0-3-3-3-3-3-3-6-6-6-6-6-6-|
C|-3-5-0-0-0-0-0-0-3-3-3-3-3-3-6-6-6-6-6-6-|

Riff 6
Guitar 2
D|---------------------------------|
A|---------------------------------|
F|-5-5-7-7-8-8-7-7-5-5-7-7-8-8-7-7-|
C|---------------------------------|
G|---------------------------------|
C|---------------------------------|
   * * * * * * * * * * * * * * * *

Play Riff 3   "I speak..."
Play Riff 4   "Maybe why..."
Play Riff 2   
Play Riff 5   "When everything is said and done..."
Play Riff 6   "...my soul..."

Riff 7   "...you!"
D|------------------------------------------|
A|------------------------------------------|
F|------------------------------------------|
C|------------------------------------------|
G|------------------------------------------|
C|-1-0-0-0-0-0-1-0-0-0-0-0-1-0-0-0-0-0-/6-1-|

Riff 8   "...posess!"
D|---------------------------------|
A|---------------------------------|
F|---------------------------------|
C|-6-6-6-6-6-6-6-6-6-6-6-6-6-6-6-6-|
G|-6-6-6-6-6-6-6-6-6-6-6-6-6-6-6-6-|
C|-6-6-6-6-6-6-6-6-6-6-6-6-6-6-6-6-|
   * * * * * * * * * * * * * * * *

Play Riff 6   "...my soul..."

Riff 9   "...you!"
D|----------------------------|
A|----------------------------|
F|----------------------------|
C|-0--3-5-0----3-5-0----3-5-0-|
G|-0--3-5-0----3-5-0----3-5-0-|
C|-0--3-5-0----3-5-0----3-5-0-|



Notation:

10^        = bend a quarter step.
10b11      = bend a half step.
10b12      = bend a full step.
10b12r10   = bend and release.
[10]12     = pre-bend.
[10]12r10  = pre-bend and release.
{14}       = pick the 14th fret while holding the most 
             previous bend.
<17>       = touch the string above the 17th fret while 
             previous note(s) is(are) still ringing.

10b13*     = tremolo bar bend, from the 10th fret to the 13th fret.
7d4*       = tremolo bar dive, from the 7th fret to the 4th fret. 
12~*       = tremolo bar vibrato.

x   =  mute with fret-hand
*   =  palm mute
X\\ =  pick slide
h   =  hammer-on
p   =  pull-off
~   =  vibrato
t   =  finger tap
/   =  slide up
\   =  slide down
h.  =  natural harmonics
a   =  artificial harmonics
(9) =  ghost note
tm  =  trem picking
tr  =  trill

Добавлено: 04.12.2013
Другие материалы по этой песне:
  • Аккорды и текст

Страница создана 09.05.2012
http://primanota.ru/ill-nino/de-la-vida-chords.htm
Привет, Гость.
Предлагаем пройти революционный курс по гитаре.
Подарок от PrimaNota.Ru, забирай!