PrimaNota.ru - самый крупный в мире бесплатный архив песенных текстов, аккордов, табулатур и нот


Ill Niño - Cleansing - текст песни, таба, бас-таба, видео

Регистрация Запомнить меня
Войти через:  Facebook Google Twitter Vk Yandex Mail.ru

Ill Niño - Cleansing - текст песни, таба, бас-таба, видео

Печатать
Просмотров: 92
Intro:

D-----------------------------------------------------|
A-----------------------------------------------------|
F-----------------------------------------------------|
C-----------------------------------------------------|
G-----------------------------------------------------|
C---0-0-0-0~~~~---------------------------------------|
    . . .

D-----------------------------------------------------|
A-----------------------------------------------------|
F-----------------------------------------------------|  X 4
C-----------------------------------------------------|
G-----------------------------------------------------|
C--0-0-0-6-6-6-6-6---0-0-0-6-6-6-6-6------------------|

Verse:

D-----------------------------------------------------|
A-----------------------------------------------------|
F-----------------------------------------------------|  X 4
C-----------------------------------------------------|
G---0-0-0---------0-0-0-------------------------------|
C---0-0-0---------0-0-0------6-0-6-0-6-0--------------|

Then ......

D----------------------------------------------------|
A----------------------------------------------------|
F----------------------------------------------------|
C------0-0-0-----5~~~~-------------------------------|
G------0-0-0-----5~~~~-------------------------------|
C------0-0-0-----5~~~~-------------------------------|

Chorus:

|---------|---------|---------|-------------|
|---------|---------|---------|-------------|
|---------|---------|---------|-------------|
|-5-5-5-5-|-5-5-5-5-|-5-5-5-5-|-11-11-11-11-|
|-5-5-5-5-|-5-5-5-5-|-5-5-5-5-|-11-11-11-11-|
|-5-5-5-5-|-5-5-5-5-|-5-5-5-5-|-11-11-11-11-|



|---------|---------|---------|---------|
|---------|---------|---------|---------|
|---------|---------|---------|---------|
|-9-9-9-9-|-9-9-9-9-|-9-9-9-9-|-7-7-7-7-|
|-9-9-9-9-|-9-9-9-9-|-9-9-9-9-|-7-7-7-7-|
|-9-9-9-9-|-9-9-9-9-|-9-9-9-9-|-7-7-7-7-|

|---------|---------|---------|-------------|
|---------|---------|---------|-------------|
|---------|---------|---------|-------------|
|-5-5-5-5-|-5-5-5-5-|-5-5-5-5-|-11-11-11-11-|
|-5-5-5-5-|-5-5-5-5-|-5-5-5-5-|-11-11-11-11-|
|-5-5-5-5-|-5-5-5-5-|-5-5-5-5-|-11-11-11-11-|

|---------|---------|---------|---------|
|---------|---------|---------|---------|
|---------|---------|---------|---------|
|-9-9-9-9-|-9-9-9-9-|-9-9-7-7-|-7-7-7-7-|
|-9-9-9-9-|-9-9-9-9-|-9-9-7-7-|-7-7-7-7-|
|-9-9-9-9-|-9-9-9-9-|-9-9-7-7-|-7-7-7-7-|

|---------------------|---------------------|
|---------------------|---------------------|
|---------------------|---------------------|
|-0---6-6-6-0-0-6-6-6-|-0---6-6-6-0-0-6-6-6-|
|-0---6-6-6-0-0-6-6-6-|-0---6-6-6-0-0-6-6-6-|
|-0---6-6-6-0-0-6-6-6-|-0---6-6-6-0-0-6-6-6-|

|---------------------|---------------------|
|---------------------|---------------------|
|---------------------|---------------------|
|-0---6-6-6-0-0-6-6-6-|-0---6-6-6-0-0-6-6-6-|
|-0---6-6-6-0-0-6-6-6-|-0---6-6-6-0-0-6-6-6-|
|-0---6-6-6-0-0-6-6-6-|-0---6-6-6-0-0-6-6-6-|


Verse:

D-------------------------------------------|
A-------------------------------------------|
F-------------------------------------------|  X 4
C-------------------------------------------|
G---0-0-0---------0-0-0---------------------|
C---0-0-0---------0-0-0------6-0-6-0-6-0----|

Chorus 2:


|---------|---------|---------|-------------|
|---------|---------|---------|-------------|
|---------|---------|---------|-------------|
|-5-5-5-5-|-5-5-5-5-|-5-5-5-5-|-11-11-11-11-|
|-5-5-5-5-|-5-5-5-5-|-5-5-5-5-|-11-11-11-11-|
|-5-5-5-5-|-5-5-5-5-|-5-5-5-5-|-11-11-11-11-|

|---------|---------|---------|---------|
|---------|---------|---------|---------|
|---------|---------|---------|---------|
|-9-9-9-9-|-9-9-9-9-|-9-9-9-9-|-7-7-7-7-|
|-9-9-9-9-|-9-9-9-9-|-9-9-9-9-|-7-7-7-7-|
|-9-9-9-9-|-9-9-9-9-|-9-9-9-9-|-7-7-7-7-|

|---------|---------|---------|-------------|
|---------|---------|---------|-------------|
|---------|---------|---------|-------------|
|-5-5-5-5-|-5-5-5-5-|-5-5-5-5-|-11-11-11-11-|
|-5-5-5-5-|-5-5-5-5-|-5-5-5-5-|-11-11-11-11-|
|-5-5-5-5-|-5-5-5-5-|-5-5-5-5-|-11-11-11-11-|

|---------|---------|---------|---------|-----|
|---------|---------|---------|---------|-----|
|---------|---------|---------|---------|-----|
|-9-9-9-9-|-9-9-9-9-|-9-9-7-7-|-7-7-7-7-|-5---|
|-9-9-9-9-|-9-9-9-9-|-9-9-7-7-|-7-7-7-7-|-5---|
|-9-9-9-9-|-9-9-9-9-|-9-9-7-7-|-7-7-7-7-|-5---|


Solo: Cant Quite Figure this out yet, will soon!

Chorus 3:

|---------|---------|---------|-------------|
|---------|---------|---------|-------------|
|---------|---------|---------|-------------|
|-5-5-5-5-|-5-5-5-5-|-5-5-5-5-|-11-11-11-11-|
|-5-5-5-5-|-5-5-5-5-|-5-5-5-5-|-11-11-11-11-|
|-5-5-5-5-|-5-5-5-5-|-5-5-5-5-|-11-11-11-11-|

|---------|---------|---------|---------|
|---------|---------|---------|---------|
|---------|---------|---------|---------|
|-9-9-9-9-|-9-9-9-9-|-9-9-9-9-|-7-7-7-7-|
|-9-9-9-9-|-9-9-9-9-|-9-9-9-9-|-7-7-7-7-|
|-9-9-9-9-|-9-9-9-9-|-9-9-9-9-|-7-7-7-7-|

|---------|---------|---------|-------------|
|---------|---------|---------|-------------|
|---------|---------|---------|-------------|
|-5-5-5-5-|-5-5-5-5-|-5-5-5-5-|-11-11-11-11-|
|-5-5-5-5-|-5-5-5-5-|-5-5-5-5-|-11-11-11-11-|
|-5-5-5-5-|-5-5-5-5-|-5-5-5-5-|-11-11-11-11-|

|---------|---------|---------|---------|-----|
|---------|---------|---------|---------|-----|
|---------|---------|---------|---------|-----|
|-9-9-9-9-|-9-9-9-9-|-9-9-7-7-|-7-7-7-7-|-5---|
|-9-9-9-9-|-9-9-9-9-|-9-9-7-7-|-7-7-7-7-|-5---|
|-9-9-9-9-|-9-9-9-9-|-9-9-7-7-|-7-7-7-7-|-5---|

Outro:

D|
A|--------------------------------------------|
F|--------------------------------------------|
C|--5~-----------------------------------------|
G|--5~-----------------------------------------|
C|--5~-----------------------------------------|
Добавлено: 08.07.2013
Другие материалы по этой песне:
  • Аккорды и текст

Страница создана 01.03.2012
http://primanota.ru/ill-nino/cleansing-chords.htm
Привет, Гость.
Предлагаем пройти революционный курс по гитаре.
Подарок от PrimaNota.Ru, забирай!