PrimaNota.ru - самый крупный в мире бесплатный архив песенных текстов, аккордов, табулатур и нот


Ildjarn - Et Glimt - таба, видео

Регистрация Запомнить меня
Войти через:  Facebook Google Twitter Vk Yandex Mail.ru

Ildjarn - Et Glimt - таба, видео

Печатать
Просмотров: 36
-------------------------------------------------------------------------------
                             Et Glimt - Ildjarn
-------------------------------------------------------------------------------
Tabbed by: Temohpab
E-mail: dzlvarv@gmail.com

Tuning: standart

e|--------------------|
B|--------------------|
G|--------------------|
D|--------------------|
A|---5-----------/8---|
E|---3-----------/6---|

e|-------------------------|
B|-------------------------|
G|-------------------------| x8
D|-------------------------|
A|---5555-4444-5555-8888---|
E|---3333-2222-3333-6666---|

e|------------------------|
B|------------------------|
G|------------------------| x4
D|------------------------|
A|---5555-4444-55555555---|
E|---3333-2222-33333333---|

e|-----------------------------------|
B|-----------------------------------|
G|-----------------------------------| x4
D|-----------------------------------|
A|---5555-11111111--1010101010-999---|
E|---3333-9-9-9-9---8-8-8-8-8--777---|

e|-------------------------|
B|-------------------------|
G|-------------------------| x2
D|-------------------------|
A|---5555-4444-5555-8888---|
E|---3333-2222-3333-6666---|

e|-------------------------|
B|-------------------------|
G|-------------------------| x3  
D|-------------------------|
A|-------------------------|
E|---3333-2222-3333-6666---|

e|-----------------------|
B|-----------------------|
G|-----------------------| 
D|-----------------------|
A|-----------------------|
E|---3333-2222-3333-b6---|


e|-------------------------|
B|-------------------------|
G|-------------------------| x4
D|-------------------------|
A|---5555-4444-5555-8888---|
E|---3333-2222-3333-6666---|

e|------------------------|
B|------------------------|
G|------------------------| x4
D|------------------------|
A|---5555-4444-55555555---|
E|---3333-2222-33333333---|

e|-----------------------------------|
B|-----------------------------------|
G|-----------------------------------| x4
D|-----------------------------------|
A|---5555-11111111--1010101010-999---|
E|---3333-9-9-9-9---8-8-8-8-8--777---|

e|-------------------------|
B|-------------------------|
G|-------------------------| x6
D|-------------------------|
A|---5555-4444-5555-8888---|
E|---3333-2222-3333-6666---|

e|-------------------------|
B|-------------------------|
G|-------------------------| x3  
D|-------------------------|
A|-------------------------|
E|---3333-2222-3333-6666---|

e|-----------------------|
B|-----------------------|
G|-----------------------| 
D|-----------------------|
A|-----------------------|
E|---3333-2222-3333-b6---|


e|-------------------------|
B|-------------------------|
G|-------------------------| x16
D|-------------------------|
A|---5555-4444-5555-8888---|
E|---3333-2222-3333-6666---|

e|-----------------------------------------------|
B|-----------------------------------------------|
G|-----------------------------------------------|  
D|-----------------------------------------------|
A|-----------------------------------------------|
E|---3333-2222-3333-6666-3333-2222-3333-6666-3---|

************************************

| /   slide up
| \   slide down
| h   hammer-on
| p   pull-off
| ~   vibrato
| +   harmonic
| x   Mute note
| b   Bend
| pb  Pre-bend
| br  Bend release
| pbr Pre-bend release
| brb Bend release bend

************************************
Добавлено: 27.03.2016
Вам также может быть интересно:
Другие материалы по этой песне:
  • Аккорды и текст

Страница создана 27.03.2016
http://primanota.ru/ildjarn/et-glimt-chords.htm
Привет, Гость.
Предлагаем пройти революционный курс по гитаре.
Подарок от PrimaNota.Ru, забирай!