PrimaNota.ru - самый крупный в мире бесплатный архив песенных текстов, аккордов, табулатур и нот


Il Teatro Degli Orrori - Direzioni Diverse - таба, видео

Регистрация Запомнить меня
Войти через:  Facebook Google Twitter Vk Yandex Mail.ru

Il Teatro Degli Orrori - Direzioni Diverse - таба, видео

Печатать
Просмотров: 84
Tabbed by: Marco Dimichele
(only 1st guitar)

E |----------------------------------------------------------|
B |-13----11-------11-------------13----11-------11----------|
G |----------12-13----13-12----------------12-13----13-12----|
D |----10-------------------10-------11-------------------10-|
A |----------------------------------------------------------|
E |----------------------------------------------------------|

E |----------------------------|
B |-13----11-------------------|
G |----------10h12-12h10-10h9--|
D |----10----------------------|
A |----------------------------|
E |----------------------------|

h   hammer-on
Добавлено: 31.07.2012
Вам также может быть интересно:
Другие материалы по этой песне:
  • Аккорды и текст

Страница создана 31.07.2012
http://primanota.ru/il-teatro-degli-orrori/direzioni-diverse-chords.htm
Привет, Гость.
Предлагаем пройти революционный курс по гитаре.
Подарок от PrimaNota.Ru, забирай!