PrimaNota.ru - самый крупный в мире бесплатный архив песенных текстов, аккордов, табулатур и нот


Il Teatro Degli Orrori - A Sangue Freddo - таба, видео

Регистрация Запомнить меня
Войти через:  Facebook Google Twitter Vk Yandex Mail.ru

Il Teatro Degli Orrori - A Sangue Freddo - таба, видео

Печатать
Просмотров: 77
-------------------------------------------------------------------------------
www.ilteatrodegliorrori.com/         SONG NAME A Sangue Freddo - Band Name Il Teatro Degli Orrori 
-------------------------------------------------------------------------------
Tabbed by: Italianfrenchrocker
Email:

Tuning: standard

e|-----------------------------------------------------|
B|-----------------------------------------------------|
G|------8\------5\------5------------------------------| x2 guitar 1
D|-5-5--x--8-8--x--3-3--x--3--5-5----8-5-5-0-----------|
A|-5-5--6--8-8--3--3-3--3--3--5-5----------------------|
E|-3-3-----6-6-----1-1-----1--3-3----------------------|     

e|-----------------------------------------------------|
B|------8\-------6\------------------------------------|
G|------7\-------5\-------5----------------------------| x2 guitar 2
D|-5-5------8-8------3-3--x--3--5-5----8-5-5-0---------|
A|-5-5------8-8------3-3--3--3--5-5--------------------|
E|-3-3------6-6------1-1-----1--3-3--------------------|

e|-----------------------------------------------------|
B|-----------------------------------------------------|
G|-----------------------------------------------------|
D|-5-5---8-8---3-3--6-5--8-5-5-0-----------------------| x2
A|-5-5---8-8---3-3--6-5--------------------------------|
E|-3-3---6-6---1-1--4-3--------------------------------|

e|---------------------------------------------------------------------------
B|---------------------------------------------------------------------------
G|-12-0-0-7-0-0-10-0-0-5-0-0-3-0-0--12-0-0-7-0-0-10-0-0-3~-0-----------------| x5
D|---------------------------------------------------------------------------|
A|---------------------------------------------------------------------------|
E|---------------------------------------------------------------------------|


e|---------------------------------------------------------------------------|
B|---------------------------------------------------------------------------|
G|-12-0-0-7-0-0-10-0-0-5-0-0-3-0-0--12-0-0-7-0-0-10-0-0-3~-0-3-3h5~----------| 
D|---------------------------------------------------------------------------|
A|---------------------------------------------------------------------------|
E|---------------------------------------------------------------------------|

e|-------------6---6--6-5-6----------------------------|
B|-8-8-8--8--8-8-8-8--8-8-8----------------------------|
G|-7-7-7--7--7---7-------------------------------------|
D|-----------------------------------------------------| x10
A|-----------------------------------------------------|
E|-----------------------------------------------------|

e|------------|         e|-----------------------------------------------------|
B|------------|         B|-----------------------------------------------------|
G|------------| x4      G|-----------------------------------------------------|
D|--3-3-3-3---|         D|-----------------------------------------------------|
A|--3-3-3-3---|         A|-----5(let ring)------5(let ring)--------------------|
E|------------|         E|-- 3---------------4---------------------------------|
|


************************************

| /   slide up
| \   slide down
| h   hammer-on
| p   pull-off
| ~   vibrato
| +   harmonic
| x   Mute note
| b   Bend
| pb  Pre-bend
| br  Bend release
| pbr Pre-bend release
| brb Bend release bend

************************************
Добавлено: 01.04.2012
Вам также может быть интересно:
Другие материалы по этой песне:

Страница создана 15.03.2012
http://primanota.ru/il-teatro-degli-orrori/a-sangue-freddo-chords.htm
Привет, Гость.
Предлагаем пройти революционный курс по гитаре.
Подарок от PrimaNota.Ru, забирай!