PrimaNota.ru - самый крупный в мире бесплатный архив песенных текстов, аккордов, табулатур и нот


Il Pan Del Diavolo - Pertanto - таба, видео

Регистрация Запомнить меня
Войти через:  Facebook Google Twitter Vk Yandex Mail.ru

Il Pan Del Diavolo - Pertanto - таба, видео

Печатать
Просмотров: 90
-------------------------------------------------------------------------------
                             Pertanto - Il Pan del Diavolo
-------------------------------------------------------------------------------
Tabbed by: Borto1412 (Andrea Bortolozzo)
E-mail: bortolozzo.andrea@gmail.com

Tuning: E-A-D-G-B-E
BPM: ~124 BPM

IMPORTANT: "/" is "Strum Down" , "\" is "Strum Up"


Refrain

e|-----------------------------------------------------------------------------|
B|-----------------------------------------------------------------------------|
G|-----------------0h2-2-2p0---0-----------------------------------------------|
D|-------0-2p0---2-----------2---2p0---0h2-------0-2p0---2-2-2p0---0-----------|
A|-0-0-3-------3---------------------3-----0-0h3-------3---------3---3p0-----3-|
E|-----------------------------------------------------------------------3-3---|


--------------------------------------------------------------

Verse

       For the strumming, you can play last "/" as a Mute Chord (X-X-X-X-X-X) 
       / : Strum Down
       \ : Strum Up

    A(Strumming verse)         A(Strumming Verse)             Verse Strumming Pattern "A"
e|--0------------------------|-0----------------------|
B|--2------------------------|-2----------------------|       A: / / /\ \// /
G|--2--2-2-2p0---0-----------|-2----------------------|
D|--2----------2---2p0---0h2-|-2--2-2-2p0---0---------|
A|--0------------------3-----|-0----------3---3p0---0-|
E|---------------------------|--------------------3---|


--------------------------------------------------------------


Chorus Part 1

       / : Strum Down
       \ : Strum Up
         
    A(Strumming Chorus)          Chorus Strumming Pattern "A"
e|--0-------------------|      
B|--2-------------------|        A: / / /\ \// \/\ / /\ \// \/\ / /\ \//
G|--2-------------------|
D|--2-------------------|
A|--0-------------------|
E|----------------------|



Chorus Part 2

       Only the second bar should be repeated x3

e|-----||--------------------------------||
B|-----||--------------------------------||
G|-----||--------------------------------||x3
D|-----||--------------------------------||
A|-0-0-||-3p0-0-3p0-0-3p0-0-3p0-0-3p0-0--||
E|-----||--------------------------------||



Chorus Part 3  (Variation 1)

e||------------||  |---|
B||------------||  |---|
G||------------||x7|---|
D||--5--7--x-x-||  |-5-|
A||--5--7--x-x-||  |-5-|
E||--3--5--x-x-||  |-3-|

Chorus Part 3  (Variation 2)

e||------------||  |----------|
B||------------||  |----------|
G||------------||x7|----------|
D||--5--7--x-x-||  |-5--7---x-|
A||--5--7--x-x-||  |-5--7---x-|
E||--3--5--x-x-||  |-3--5---x-|


Chorus Part 3  (Variation 3)

e||------------||  |----------|
B||------------||  |----------|
G||------------||x7|----------|
D||--5--7--x-x-||  |-10--7----|
A||--5--7--x-x-||  |-10--7----|
E||--3--5--x-x-||  |-8---5----|



___________________________________________________

      Refrain x4

E Vedi quello che mi serve                 |         
E faccio quello che mi pare                |
La collezione di farfalle                  |
Sono Scrivo Sesso e matto                  | Verse x2
Un cavernè                                 |
E poi salvo il mondo                       |
Il sabato lavoro in centro                 |


Pertanto                                   | Chorus Part 1         
Voglio fare tutto                          |

Ma tutto non si può fare                   | Chorus Part 2


      Chorus Part 3 (Variation 1)
      Refrain x2
  
   
Vedi quello che mi serve                   |
e faccio quello che mi pare                |
la mia ragazza studia in Nepal             | Verse x2
quanto mi servirebbe una chitarra nuova    |
una vita nuova, una vita sana              |


Pertanto                                   | Chorus Part 1         
Voglio fare tutto                          |

Ma tutto non si può fare                   | Chorus Part 2


      Chorus Part 3 (Variation 2)
      Refrain x2


Pertanto                                   | Chorus Part 1         
Voglio fare tutto                          |

Ma tutto non si può fare                   | Chorus Part 2


      Chorus Part 3 (Variation 3)


___________________________________________________


************************************

| h   hammer-on
| p   pull-off
| ~   vibrato
| +   harmonic
| x   Mute note
| b   Bend
| pb  Pre-bend
| br  Bend release
| pbr Pre-bend release
| brb Bend release bend

************************************
Добавлено: 05.07.2015
Вам также может быть интересно:
Другие материалы по этой песне:
  • Аккорды и текст

Страница создана 05.07.2015
http://primanota.ru/il-pan-del-diavolo/pertanto-chords.htm
Привет, Гость.
Предлагаем пройти революционный курс по гитаре.
Подарок от PrimaNota.Ru, забирай!