PrimaNota.ru - самый крупный в мире бесплатный архив песенных текстов, аккордов, табулатур и нот


Il Divo - Sortlegio De Amor - таба, видео

Регистрация Запомнить меня
Войти через:  Facebook Google Twitter Vk Yandex Mail.ru

Il Divo - Sortlegio De Amor - таба, видео

Печатать
Просмотров: 129
Уроки эстрадного вокала в Санкт-Петербурге
Entrada: 

        F                 Dm         Bb              G            C
e|----3-5-------8-6-5------------------------------------------------|
B|-6----------6-------6-8-6-6~~-/6---------6-5-6-8-8/10--10h11p10-8~~|
G|----------5-----------------------5-7~~----------------------------|
D|-------------------------------------------------------------------|
A|-------------------------------------------------------------------|
E|-------------------------------------------------------------------|

F                          Dm
¿Que será, ésta voz que nos habla,
Bb                          C
Desde aquí, en el centro del pecho?


F                      Dm
¿Que será, esto que me provoca,
     Bb                      C7
y también, ilusiona y me atrapa?


F       C         Dm
Es, un mandato de Dios,
       F          Bb  G                 C
Que me hizo el favor,  de ponerte en mi vida.
F                 Dm
Es, sortilegio de amor,
     C  Bb        G           C 
es milagro de dos, un encuentro de almas.


 F                        Dm
¿Que será, lo que nos hace eternos,
   Bb        G         C
y además, da sentido a la vida?


 F                         Dm
¿Que será, esto, que no hay palabras,
   Bb   Gm                C7
y además, no se ve, ni se toca?


F          C      Dm
Es, un mandato de Dios,
      F            Bb   G              C
la expresión de su voz,  en la forma perfecta.
 F       C         Dm
Es, sortilegio de amor,
      F        Bb  G                C    C#-Cm–Bbm  C   D
es milagro de dos,  un encuentro de almas.

 G               Em
¡Es, un mandato de Dios,
        G          C  Em Am                 D
la expresión de su voz,    en la forma perfecta!
 G         D/F#     Em    C
¡Es, sortilegio de amor,
                  A                   D7   G-Em-A-C-D7
es milagro de dos,  un encuentro de almas, es!

Salida:  
     G                     Dm/F             C/E   D      G
e|------------10-8-7--------------------7---------------------|
B|---8~~----8--------8-8/10~-8-8~~---10------8~---8--10--8~~~~|
G|--------7-------------------------------9-------------------|
D|------------------------------------------------------------|
A|------------------------------------------------------------|
E|------------------------------------------------------------|
Добавлено: 18.06.2012
Другие материалы по этой песне:
  • Аккорды и текст

Страница создана 18.06.2012
http://primanota.ru/il-divo/sortlegio-de-amor-chords.htm
Привет, Гость.
Предлагаем пройти революционный курс по гитаре.
Подарок от PrimaNota.Ru, забирай!