PrimaNota.ru - самый крупный в мире бесплатный архив песенных текстов, аккордов, табулатур и нот


Ikimono-Gakari - Love Song Wa Tomaranai Yo - таба, видео

Регистрация Запомнить меня
Войти через:  Facebook Google Twitter Vk Yandex Mail.ru

Ikimono-Gakari - Love Song Wa Tomaranai Yo - таба, видео

Печатать
Просмотров: 44
Уроки эстрадного вокала в Санкт-Петербурге
DO = D


Love Song wa Love Song wa
Love Song wa Love Song wa
Love Song wa Love Song wa
Tomaranai  yo

D

D                 D/C#         D/B             Asus4 
Kimi no koto ga suki da yo nee tsutae kireyashinai yo
  D/G               D/F#          Em       E     (A5-B5-C#5-B5-C#5-D5-E5-A5)
hitotsu hitotsu kotoba ni shite sono mama ietara na

D             A/C#    F#7-Bm7             A
aenai toki no naka de nee omoi wa tsuyoku naru yo
  G       F#7    Bm-Bm/A-B/G#
mata kimi to waraeru made
  Em(F#m7-G)     A
watashi wa utau nda tomaranai LOVE SONG

(*)
Bm Em A D
G E/G# A

D      D/C#          Bm7 Asus4
hitori kiri de hajimatta
  D/G         D/F#            Em7         A (C#5-D5-E5)
kono machi no hibi wa watashi no yume nanda
  D       D/C#      Bm7 A D
?aitai? nante ienai yo
  D/G      F#m7                  Em         A
denwa o kitte shimau tabi namida ga tomaranai

     G           Gm             F#m-F#      Bm (B5-C#5-D)
kousaten no naka tachidomaru sora dake ga hirokute
  E                    Em     (A5-B5-C#5- B5-C#5-D5-E5- D5-E5-F#-G-G#-A5) A
ganbaranakya na mada kimi ni aenai

D                 A/C#         Bm7             A
kimi no koto ga suki da yo nee tsutae kireyashinai yo
  G                 D/F#          Em       E (A5-B5-C#5-B5-C#5-D5-E5-A5)
hitotsu hitotsu kotoba ni shite sono mama ietara na
D              A/C#    F#7-Bm7              A
sabishisa o koeru tabi nee yasashiku nareru nda yo
  G       F#7    Bm-Bm/A-B/G#
mata kimi to waraeru made
  Em(F#m7-G)     A
watashi wa utau nda tomenai yo LOVE SONG

(**)
Bm Em
C-Bm-Am
G-F#m-Em

D D/C# Bm7 Asus4
itsumo techo no naka ni
D/G D/F# Em7 (A5-A5 G5-F#5 E5-D5-C#5)
futari totta shashin egao ga soko ni aru
D D/C# Bm7 A D
demo ne sugu ni shimau nda
D/G F#m7 Em A
make souna jibun ni nando mo mukiau yo

G Gm F#m-F# Bm (B5-C#5-D)
densha no mado de bonyari to biru o mitsumeteta
E Em (A5-B5-C#5- B5-C#5-D5-E5- D5-E5-F#-G-G#-A5) A
nani mo tsukamenai mada kimi ni aenai . . .

D A/C# F#7-Bm7 A
kimi no koto ga suki da yo nee wasureru toki wa nai yo
G F#7 Bm-Bm/A-B/G#
hora sora mo koeru you ni
Em(F#m7-G) A D
hitori de utau kara kotaete yo LOVE SONG

(***)
Dm7 Gm C F Bb Em7-5 A Dm
Dm7 Gm C C#dim
D C Bb A7 D

G Gm F#m-F# Bm (B5-C#5-D)
sorezore no yume oiikakete uta wa tsudzuiteku
E Em (A5-B5-C#5- B5-C#5-D5-E5- D5-E5-F#-G-G#-A5) A
shinjiterunda yo mata kimi ni aitai

(****)
Bb

D# Bb/D Cm7 Bb
kimi no koto ga suki da yo nee tsutae kireyashinai yo
G# Gm7 Fm F  Bb5-C5-D5-C5-D5-D#5-F5-Bb5
hitotsu hitotsu kotoba ni shite sono mama ietara na
D# Bb/D G7-Cm7 Bb
Subete ga mata de aete nee hitotsu ni mitsuberu nara
G# G7 C#m-C#m/Bb-C#/A Fm(Gm7-G#) Bb
atarashii monogatari wo isshouni tsukuritai
D#
uta wo yo LOVE SONG

(*****)
Cm Fm Bb D#
G# F/A Bb
D#



little bonus :p

(*)
||-----------------|-----------------|----------------|------------------|
||-----------------|-----------------|----------------|------------------|
||/7~-7-7-9-11-12~-|-12-12-11-9-7-6~-|-6-6-7-9-9/11~--|-11-11-14\9-11\-7-|
||-----------------|-----------------|----------------|------------------|
||-----------------|-----------------|----------------|------------------|
||-----------------|-----------------|----------------|------------------|

|-----------------|-----------------|------------------------------||
|-----------------|-----------------|------------------------------||
|-----6-7-7/9~----|-9-9-7-6-4-6/7~--|-6/4\6~------4-4~------2-2~---||
|-9-9-------------|-----------------|------------------------------||
|-----------------|-----------------|------------------------------||
|-----------------|-----------------|------------------------------||


(**)
||-----------------|---------------|------------------------------||
||-----------------|---------------|------------------------------||
||/7~-7-7-9-11-12~-|--12-12-14-12--|-13-12-13-12------8-7-8-7-----||
||-----------------|---------------|-------------14~----------9~--||
||-----------------|---------------|------------------------------||
||-----------------|---------------|------------------------------||

(***)
||-----------------|----------------|----------------------|----------------------------|
||-----------------|----------------|----------------------|-11-10----------------------|
||-11-12-14-14/15~-|-9-10-12-12/14~-|-----9-10-10/12~-10-9-|-----------9-10/12-10/9\10~-|
||-----------------|----------------|-12-------------------|----------------------------|
||-----------------|----------------|----------------------|----------------------------|
||-----------------|----------------|----------------------|----------------------------|

|-----------------|----------------------------------------------||
|-----------------|-13~------------------------------------------||
|-11-12-14-14/15~-|-----12~-14~-12~-10~-9~--7-9-10-9-------------||
|-----------------|-----------------------------------10-10/12~--||
|-----------------|----------------------------------------------||
|-----------------|----------------------------------------------||

(****)
||-----------------------------------------------||
||-----------------------------------------------||
||-----------------------------------------------||
||------------8-10-13-12-10-8--------------------||
||---------8-------------------11-10-8-6-5-------||
||--6-10-----------------------------------8-6---||

(*****)
||------------------|------------------|------------------|-------------------|
||------------------|------------------|------------------|-------------------|
||/8~-8-8-10-12-13~-|-13-13-12-10-8-7~-|-7-7-8-10-10/12~--|-12-12-15\10-12\-8-|
||------------------|------------------|------------------|-------------------|
||------------------|------------------|------------------|-------------------|
||------------------|------------------|------------------|-------------------|

|------------------|------------------|-------------------------------------------||
|------------------|------------------|-------------------------------------------||
|--------7-8-8/10~-|-10-10-8-7-5-7/8~-|-7^5^7~-5-5~-3-3~-1-1~-0-0-------3-3~-1-0~-||
|-10-10------------|------------------|----------------------------3-3~-----------||
|------------------|------------------|-------------------------------------------||
|------------------|------------------|-------------------------------------------||





request? 
Visit my blog http://dhisway.blogspot.com or mention me on Twitter @Dhisconnect. Thanks :)
Добавлено: 11.03.2016
Другие материалы по этой песне:
  • Аккорды и текст

Страница создана 11.03.2016
http://primanota.ru/ikimono-gakari-2/love-song-wa-tomaranai-yo-chords.htm
Привет, Гость.
Предлагаем пройти революционный курс по гитаре.
Подарок от PrimaNota.Ru, забирай!