PrimaNota.ru - самый крупный в мире бесплатный архив песенных текстов, аккордов, табулатур и нот


Ike Tina Turner - River Deep Mountain High - бас-таба, видео

Регистрация Запомнить меня
Войти через:  Facebook Google Twitter Vk Yandex Mail.ru

Ike Tina Turner - River Deep Mountain High - бас-таба, видео

Печатать
Просмотров: 95
River Deep ~ Mountain High
Released in 1966 Written by Phil Spector, Jeff Barry, Ellie Greenwich
Reached Number 3 in UK
Tabbed by bass50611
Any comments email me at goldenoldie.benson@sky.com
Great song to play along to, Have fun

Intro:
G-------------------------------------|
D----88-6-8-6-------------------------|
A---8--------8---6-8-6----------------|
E----------------------8---4-6---4-6--|

Verse:	
G----------------------------------------------------------------|
D----1-1-11-1----1-1-11-1---------------------------1-1-11-1-----|
A---1-1-1--1----1-1-1--1----1-1-11-1----1-1-11-1---1-1-1--1------|
E--------------------------1-1-1--1----1-1-1--1------------------|

G------------------------------------------------------------|
D----1-1-11-1--------------3-3-33-3---------------3-3-33-3---|
A---1-1-1--1---1-1-11-1---3-3-3--3----1-1-11-1---3-3-3--3----|
E-------------1-1-1--1---------------1-1-1--1----------------|

G------------------------------------------|
D----------------3-3-33-3------------------|
A----1-1-11-1---3-3-3--3----1-1-11-1---0---|
E---1-1-1--1---------------1-1-1--1--------|

Chorus:
G-------------------------------------------------------------------|
D--------------------6-5-3------------------------------8-7-5-------|
A-------------------------6-4-3------------------------------8-6-5--|
E-4-4-4-4-4-4-4-4---4----------4---6-6-6-6-6-6-6-6-6---6----------6-|

G--------------------------------------------------------------|
D--------------------6-5-3------------------------8-7-5--------|
A-------------------------6-4-3------------------------8-6-5---|
E-4-4-4-4-4-4-4-4---4----------4---6-6-6-6-6-6-6-6-----------6-|

Repeat Intro, Verse & Chorus:

Bridge:
G--------------6----------------6----------------6----------------6--|
D--678-8---6788-8---678-8---6788-8---678-8---6788-8---678-8---6788-8-|
A-8-------8--------8-------8--------8-------8--------8-------8-------|
E--------------------------------------------------------------------|

G--------------6----------------6-------------------------------11---|
D--678-8---6788-8---678-8---6788-8----11-12-13-13----11-12-13-13--13-|
A-8-------8--------8-------8--------13-------------13----------------|
E--------------------------------------------------------------------|

G-------------------------------11------------------6------------|
D-----11-12-13-13----11-12-13-13--13----678-8---6788-8---678-8---|
A---13-------------13------------------8-------8--------8--------|
E----------------------------------------------------------------|

G--------6----|
D----6788-8---|
A---8---------|
E-------------|

PLAY THIS 5 TIMES         6th TIME
G----------------------||---------------------|
D----678-8-8-8-8-8-8---||---------------------|
A---8------------------||---------------------|
E----------------------||---6-6-6-6-6-6-6-5---|

Repeat Chorus

To Intro and Finish
Добавлено: 29.05.2012
Другие материалы по этой песне:
  • Аккорды и текст

Страница создана 29.05.2012
http://primanota.ru/ike-tina-turner/river-deep-mountain-high-chords.htm
Привет, Гость.
Предлагаем пройти революционный курс по гитаре.
Подарок от PrimaNota.Ru, забирай!