PrimaNota.ru - самый крупный в мире бесплатный архив песенных текстов, аккордов, табулатур и нот


iium - Leading The Way - таба, видео

Регистрация Запомнить меня
Войти через:  Facebook Google Twitter Vk Yandex Mail.ru

iium - Leading The Way - таба, видео

Печатать
Просмотров: 48
IIUM Theme Song - Lets Lead The Way

Hit like if your from IIUM!

The following is a lead guitar playing the vocal melodies of the entire song.

Kasi abang senior likes :)



VERSE

 E|-------------------------------------------------------------------------|
 B|-------------------------------------------------------------------------|
 G|-----0-2h4~~--0-4-5p4-4/2~~~~---4-5-4-4-2----0---0-0-0-4-2~~~------------|
 D|-0-0-------------------------------------------4-------------------------|
 A|-------------------------------------------------------------------------|
 D|-------------------------------------------------------------------------|


 E|-------------------------------------------------------------------------|
 B|-------------------------------------------------------------------------|
 G|-----0-2h4~~--0-4-5p4-4/2~~---0--/7-5-5p4-4-2p0-/4~~---------------------|
 D|-0-0---------------------------------------------------------------------|
 A|-------------------------------------------------------------------------|
 D|-------------------------------------------------------------------------|

 E|-------------------------------------------------------------------------|
 B|-------------------------------------------------------------------------|
 G|----------2-------0-4-5/4-2---4-5-4-2~~----2/4--7--~---------------------|
 D|--5-4-2-5---5---0--------------------------------------------------------|
 A|-------------------------------------------------------------------------|
 D|-------------------------------------------------------------------------|



CHORUS 


 E|-------------------------------------------------------------------------|
 B|-------------------------------------------------------------------------|
 G|--7-7-4~----4h5-7-7-9-5-4-5~---4h5-5-2~---2-4h5-5-5-7-4-2-4--------------|
 D|-------------------------------------------------------------------------|
 A|-------------------------------------------------------------------------|
 D|-------------------------------------------------------------------------|


 E|-------------------------------------------------------------------------|
 B|-------------------------------------------------------------------------|
 G|-0--0--0--7~~~-----0--0--0--9~~~------5-5-5-5~---5-4-5-4---2-2---7-7-7~~-|-x2
 D|-------------------------------------------------------------------------|
 A|-------------------------------------------------------------------------|
 D|-------------------------------------------------------------------------|

Добавлено: 26.06.2016
Другие материалы по этой песне:
  • Аккорды и текст

Страница создана 26.06.2016
http://primanota.ru/iium/leading-way-chords.htm
Привет, Гость.
Предлагаем пройти революционный курс по гитаре.
Подарок от PrimaNota.Ru, забирай!