PrimaNota.ru - самый крупный в мире бесплатный архив песенных текстов, аккордов, табулатур и нот


Ihsahn - Unhealer - текст песни, таба, видео

Регистрация Запомнить меня
Войти через:  Facebook Google Twitter Vk Yandex Mail.ru

Ihsahn - Unhealer - текст песни, таба, видео

Печатать
Просмотров: 129
                                    UNHEALER
                              As recorded by Ihsahn
                           (From the 2008 Album ANGL)

Words and Music by Ihsahn
Arranged by Ihsahn
Transcribed by Simon Montague-Bassett

Gtr I (E A D G B E) - 'Guitar 1'
Gtr II (E A D G B E) - 'Guitar 2'
Gtr III (E A D G B E) - 'Harmony'
Gtr IV (E A D G B E) - 'Clean Guitar'
Gtr V (E A D G B E) - 'Solo'

  Q=105
 4/4
  Gtrs I, II
  H    Q    a  +Q
|----------------------|
|----------------------|
|----------------------|
|----------------------|
|----------------------|
|---------/14-(14)\----|


  Gtr I
  PM----------|         PM--------|
  E E E E  E   E  E E   E E E E E E E E
|---------------------|-----------------|
|---------------------|-----------------|
|---------------------|-----------------|
|-----2----4------5p4-|-----2---4---5p4-|
|---2---2------2------|---2---2---2-----|
|-2-------------------|-2---------------|
|
| Gtr II
|       ~~~~~~~~~~
| Q   E Q     +Q    E   Q   E Q   Q   E
|---------------------|-----------------|
|---------------------|-------7---------|
|-6h==7-4-----(4)-----|-6h==7-----7p==6-|
|-------------------4-|-----------------|
|---------------------|-----------------|
|---------------------|-----------------|
|
| Gtr III
|       ~~~~~~                        ~~~
| Q   E E +H            Q   E Q   Q   E
|---------------------|-------7---------|
|-5h==7-3-(3)---------|-5h==7-----7---8-|
|---------------------|-----------------|
|---------------------|-----------------|
|---------------------|-----------------|
|---------------------|-----------------|


   PM---------|       PM-----------------|
   E  E E E E E E E   E E  E      E   E  E E E
|-------------------|--------------------------|
|-------------------|--------------------------|
|-------------------|--------------------------|
|-------2---4---5p4-|------2----------4----5p4-|
|-----2---2---2-----|---2---------2------2-----|
|--3----------------|-3------------------------|
|
|  ~~~
|  W                  Q    E      Q      Q   E
|-------------------|--------------------------|
|-------------------|--------------------------|
|--6----------------|-6h===7p=====6------------|
|-------------------|--------------------5---4-|
|-------------------|--------------------------|
|-------------------|--------------------------|
|
|~~~~~                            ~~~~~~~
| +W                  Q   +E     +E  +H
|-------------------|--------------------------|
|-(8)---------------|-8---(8)b10r(8)-(8)-------|
|-------------------|--------------------------|
|-------------------|--------------------------|
|-------------------|--------------------------|
|-------------------|--------------------------|


  PM----------|         PM--------|
  E E E E  E   E  E E   E E E E E E E E
|---------------------|-----------------|
|---------------------|-----------------|
|---------------------|-----------------|
|-----2----4------5p4-|-----2---4---5p4-|
|---2---2------2------|---2---2---2-----|
|-2-------------------|-2---------------|
|
|       ~~~~~~~~~~
| Q   E Q     +Q    E   Q   E Q   Q   E
|---------------------|-----------------|
|---------------------|-------7---------|
|-6h==7-4-----(4)-----|-6h==7-----7p==6-|
|-------------------4-|-----------------|
|---------------------|-----------------|
|---------------------|-----------------|
|
|       ~~~~~~                        ~~~
| Q   E E +H            Q   E Q   Q   E
|---------------------|-------7---------|
|-5h==7-3-(3)---------|-5h==7-----7---6-|
|---------------------|-----------------|
|---------------------|-----------------|
|---------------------|-----------------|
|---------------------|-----------------|


   PM-----|
             |-3--|
   E  E E E  Q  Q Q    H          H
|-------------------|--------------------|
|-------------------|--------------------|
|-------------------|--------------------|
|-------2----4------|-------------5------|
|-----2---2-----2-0-|--------------------|
|--3----------------|--3-----------------|
|
|  ~~~~~~~~~~~~~
|            |-3--|
| +H        +Q  Q Q    Q      Q   Q  Q
|-------------------|--------------------|
|-------------------|--------------------|
|-(6)-------(6)-6-7-|-/9------7---6------|
|-------------------|----------------7---|
|-------------------|--------------------|
|-------------------|--------------------|
|
|~~~~~~~~~~~~~~~              ~~~
|            |-3--|
| +H        +Q  Q Q    Q     +Q   Q  Q
|---------------6-7-|--8b10r=(8)--6------|
|-(6)-------(6)-----|----------------9---|
|-------------------|--------------------|
|-------------------|--------------------|
|-------------------|--------------------|
|-------------------|--------------------|


  PM----|   PM      PM|   PM  PM
  E E E E E E E E   E E E E E E E  E
|-----------------|------------------|
|-----------------|------------------|
|-----------------|------------------|
|-----6---8---6---|-----6---8---6----|
|---6---6---6---6-|---6---6---6----6-|
|-4---------------|-4----------------|
|
| ~
| W                 Q   E Q   Q    E
|-----------------|------------------|
|-----------------|------------------|
|-----------------|------------------|
|-6---------------|-8h==9-6----------|
|-----------------|-----------6----5-|
|-----------------|------------------|
|
| ~
| W                 Q   E Q   Q    E
|-----------------|------------------|
|-----------------|---------------/7-|
|-8---------------|-6h==8-4----------|
|-----------------|-----------6------|
|-----------------|------------------|
|-----------------|------------------|


      PM  PM  PM  PM----|               ~~~~~~
   E  E E E E E E E   E E  E     E   E  E +Q
|-------------------|--------------------------|
|-------------------|--------------------------|
|-------7---9---7---|------6-------------------|
|-----7---7---7---7-|---6--------6--/7---------|
|--5----------------|-4-----------------7-(7)--|
|-------------------|--------------------------|
|
|  ~~~~~~~~~~~~~~~~~~~~~                ~~~~~~
| +W                  H             +E  E +Q
|-------------------|--------------------------|
|-------------------|--------------------------|
|-------------------|--------------------------|
|-------------------|--------------------------|
|-(5)---------------|-4-------------(4)--------|
|-------------------|-------------------5-(5)--|
|
|  ~~~                           ~~~~~~~
| +W                  Q   +E    +E  +H
|-------------------|--------------------------|
|-(7)---------------|-6---(6)b7r(6)-(6)--------|
|-------------------|--------------------------|
|-------------------|--------------------------|
|-------------------|--------------------------|
|-------------------|--------------------------|


  PM----|     PM      PM|   PM  PM
  E E E E  E  E E E   E E E E E E E E
|-------------------|-----------------|
|-------------------|-----------------|
|-------------------|-----------------|
|-----6----8----6---|-----6---8---6---|
|---6---6-----6---6-|---6---6---6---6-|
|-4-----------------|-4---------------|
|
|       ~~~~~~
| Q   E E +H          Q   E Q   Q   E
|-------------------|-----------------|
|-------------------|-----------------|
|-------------------|-------8---------|
|-8h==9-6-(6)-------|-8h==9-----9p==8-|
|-------------------|-----------------|
|-------------------|-----------------|
|
| ~~
| W                   Q   E Q   Q   E
|-------------------|-----------------|
|-------------------|-------9---------|
|-8-----------------|-6h==8-----8---6-|
|-------------------|-----------------|
|-------------------|-----------------|
|-------------------|-----------------|


      PM  PM              ~~~~~~~~~
              |--3---|
    E E E E   Q   Q  Q    H    +Q    a   Q
|----------------------|----------------------|
|----------------------|----------------------|
|-------7----/9---7--5-|--4----(4)--(4)s19\---|
|-----7---7------------|----------------------|
|---5------------------|----------------------|
|----------------------|----------------------|
|
|   ~~~~~~~~~~~~~         ~~~~~~~~~
|             |--3---|
|   H        +Q   Q  Q    H    +Q       +Q
|----------------------|----------------------|
|----------------------|----------------------|
|----------------------|----------------------|
|---7--------(7)-/7--6-|--5----(5)------(5)\--|
|----------------------|----------------------|
|----------------------|----------------------|
|
|   ~~~~~~~~~~~~~         ~~
|             |--3---|
|   H        +Q   Q  Q    W
|----------------------|-10-------------------|
|----------------------|----------------------|
|-/11-------(11)--9-11-|----------------------|
|----------------------|----------------------|
|----------------------|----------------------|
|----------------------|----------------------|


  Gtrs I, II
  W               +W                  +W                +H     H
|---------------|-------------------|-----------------|-------------|
|---------------|-------------------|-----------------|-------------|
|---------------|-------------------|-----------------|-------------|
|-4-------------|-(4)---------------|-(4)-------------|-(4)---------|
|-2-------------|-(2)---------------|-(2)-------------|-(2)---------|
|-2-------------|-(2)---------------|-(2)-------------|-(2)---------|
|
| Gtr IV
| E E Q  +H       +H     +Q   +E  E    E  E Q  +H       +W
|---------------|-------------------|-----------------|-------------|
|---------------|-------------------|-----------------|-------------|
|-----0--(0)----|-(0)----(0)--(0)---|-------0--(0)----|-(0)---------|
|---4-----------|-------------------|-----4-----------|-------------|
|-2-------------|-----------------0-|--2--------------|-------------|
|---------------|-------------------|-----------------|-------------|


    Gtr IV
    E E E E E E E E   E E E E E E E E   E E E E E E E E   E E E E E E E E   3x
||------------------|-----------------|-----------------|-------------------||
||o-----------------|-----------------|-----------------|------------------o||
||------0---0---0---|-----0---0---0---|-----0---0---0---|-----0---0---0-----||
||----4-----------4-|---4-----------4-|---4-----------4-|---4-----------4---||
||o-3-----2---2-----|-3-----2---2-----|-3-----2---2-----|-3-----2---2------o||
||------------------|-----------------|-----------------|-------------------||


  E E E E E E E E   E E E E E E E E   E E E E E E E E   E E E E E E E E
|-----------------|-----------------|-----------------|-----------------|
|-----------------|-----------------|-----------------|-----------------|
|-----0---0---0---|-----0---0---0---|-----0---0---0---|-----0-----0-----|
|---4-----------4-|---4-----------4-|---4-----------4-|---4-----4---4---|
|-3-----2---2-----|-3-----2---2-----|-3-----2---2-----|-3-----2-------5-|
|-----------------|-----------------|-----------------|-----------------|


  E E E E +H       +Q   +E  E E E E E   E E E E +H       E E E Q  E. E.
|----------------|------------0-------|----------------|-----------------|
|----------------|--------------0-----|-------3-(3)----|-------1--0------|
|-------0-(0)----|-(0)--(0)-------0---|-----0----------|-----0-------0---|
|-----2----------|--------------------|---4------------|---2-------------|
|---2------------|------------------0-|-5--------------|-3---------------|
|-0--------------|----------0---------|----------------|-----------------|


  E E E E +H       +Q   +E  E E E E E   E E E Q  E. E.    E E E E +H
|----------------|------------0-------|-----------------|-------0-(0)-------|
|----------------|--------------0-----|-------3---------|-------1-(1)-------|
|-------0-(0)----|-(0)--(0)-------0---|-----0----5--4---|-----0-------------|
|-----2----------|--------------------|---4-------------|---2---------------|
|---2------------|------------------0-|-5---------------|-3-----------------|
|-0--------------|----------0---------|-----------------|-------------------|
|
| Gtr I
| W                 W                   W                 H        Q    Q
|----------------|--------------------|-----------------|-------------------|
|----------------|--------------------|-----------------|-------------------|
|----------------|--------------------|-----------------|-------------------|
|----------------|--------------------|-----------------|-------------------|
|----------------|--------------------|-----------------|-------------------|
|----------------|--------------------|-----------------|--------------12\--|


  Gtr I
  Q.        H    +E    Q.        H    +E
|--------------------|--------------------|
|--------------------|--------------------|
|--------------------|--------------------|
|-3---------2----(2)-|-3---------2----(2)-|
|-3---------2----(2)-|-3---------2----(2)-|
|-1---------0----(0)-|-1---------0----(0)-|
|
| Gtr II
| |-3--|               |-3--|
| S  S S Q  H    +E    S  S S Q  H    +E
|--------1--3----(3)-|--------1--3----(3)-|
|------1----0----(0)-|------1----0----(0)-|
|----1------0----(0)-|----1------0----(0)-|
|-3---------2----(2)-|-3---------2----(2)-|
|--------------------|--------------------|
|--------------------|--------------------|


                  PM-|
  Q.        H     S  S   E.       E. H    +E
|----------------------|----------------------|
|----------------------|----------------------|
|----------------------|----------------------|
|-3---------2----------|-3--------3--2----(2)-|
|-3---------2----------|-3--------3--2----(2)-|
|-1---------0-----0--0-|-1--------1--0----(0)-|
|
| |-3--|                 |-3--|
| S  S S Q  H    +E      S  S S Q    H    +E
|--------1--3----(3)---|--------4----3----(3)-|
|------1----0----(0)---|------1------0----(0)-|
|----1------0----(0)---|----1--------0----(0)-|
|-3---------2----(2)---|-3-----------2----(2)-|
|----------------------|----------------------|
|----------------------|----------------------|


                  PM-|
  Q.        H     S  S   E.       E. H    +E
|----------------------|----------------------|
|----------------------|----------------------|
|----------------------|----------------------|
|-3---------2----------|-3--------3--2----(2)-|
|-3---------2----------|-3--------3--2----(2)-|
|-1---------0-----0--0-|-1--------1--0----(0)-|
|
| |-3--|                 |-3--|
| S  S S Q  H    +E      S  S S Q    H    +E
|--------1--3----(3)---|--------1----3----(3)-|
|------1----0----(0)---|------1------0----(0)-|
|----1------0----(0)---|----1--------0----(0)-|
|-3---------2----(2)---|-3-----------2----(2)-|
|----------------------|----------------------|
|----------------------|----------------------|


                  PM-|
  Q.        H     S  S   E.       E. Q.    Q
|----------------------|----------------------------|
|----------------------|----------------------------|
|----------------------|----------------------------|
|-3---------2----------|-3--------3--2--------------|
|-3---------2----------|-3--------3--2--------------|
|-1---------0-----0--0-|-1--------1--0----12\-------|
|
| |-3--|                 |-3--|
| S  S S Q  H    +E      S  S S Q    H        +E
|--------1--3----(3)---|--------4----3--------(3)---|
|------1----0----(0)---|------1------0--------(0)---|
|----1------0----(0)---|----1--------0--------(0)---|
|-3---------2----(2)---|-3-----------2--------(2)---|
|----------------------|----------------------------|
|----------------------|----------------------------|


                    PM-|                       PM-|
  Q.        Q.   E  S  S   E.       E. Q.   E  S  S
|------------------------|--------------------------|
|------------------------|--------------------------|
|------------------------|--------------------------|
|-3---------2----2-------|-3--------3--2----2-------|
|-3---------2----2-------|-3--------3--2----2-------|
|-1---------0----0--0--0-|-1--------1--0----0--0--0-|
|
| |-3--|                   |-3--|
| S  S S Q  H      +E      S  S S Q    H      +E
|--------1--3------(3)---|--------1----3------(3)---|
|------1----0------(0)---|------1------0------(0)---|
|----1------0------(0)---|----1--------0------(0)---|
|-3---------2------(2)---|-3-----------2------(2)---|
|------------------------|--------------------------|
|------------------------|--------------------------|


                    PM-|                       PM-|
  Q.        Q.   E  S  S   E.       E. Q.   E  S  S
|------------------------|--------------------------|
|------------------------|--------------------------|
|------------------------|--------------------------|
|-3---------2----2-------|-3--------3--2----2-------|
|-3---------2----2-------|-3--------3--2----2-------|
|-1---------0----0--0--0-|-1--------1--0----0--0--0-|
|
| |-3--|                   |-3--|
| S  S S Q  H      +E      S  S S Q    H      +E
|--------1--3------(3)---|--------4----3------(3)---|
|------1----0------(0)---|------1------0------(0)---|
|----1------0------(0)---|----1--------0------(0)---|
|-3---------2------(2)---|-3-----------2------(2)---|
|------------------------|--------------------------|
|------------------------|--------------------------|


                    PM-|                       PM-|
  Q.        Q.   E  S  S   E.       E. Q.   E  S  S
|------------------------|--------------------------|
|------------------------|--------------------------|
|------------------------|--------------------------|
|-3---------2----2-------|-3--------3--2----2-------|
|-3---------2----2-------|-3--------3--2----2-------|
|-1---------0----0--0--0-|-1--------1--0----0--0--0-|
|
| |-3--|                   |-3--|
| S  S S Q  H      +E      S  S S Q    H      +E
|--------1--3------(3)---|--------1----3------(3)---|
|------1----0------(0)---|------1------0------(0)---|
|----1------0------(0)---|----1--------0------(0)---|
|-3---------2------(2)---|-3-----------2------(2)---|
|------------------------|--------------------------|
|------------------------|--------------------------|


                      PM-|
  E.       E. Q.   E  S  S   E.       E. Q.    Q
|--------------------------|---------------------------|
|--------------------------|---------------------------|
|--------------------------|---------------------------|
|-3--------3--2----2-------|-7--------7--5-------------|
|-3--------3--2----2-------|-5--------5--3-------------|
|-1--------1--0----0--0--0-|-5--------5--3----12\------|
|
| |-3--|                     |-3--|
| S  S S Q    H      +E      S  S S Q    H        +E
|--------1----3------(3)---|---------------------------|
|------1------0------(0)---|------0-3----1--------(1)--|
|----1--------0------(0)---|----0----------------------|
|-3-----------2------(2)---|-0-------------------------|
|--------------------------|---------------------------|
|--------------------------|---------------------------|


  PM----------|         PM--------|
  E E E E  E   E  E E   E E E E E E E E
|---------------------|-----------------|
|---------------------|-----------------|
|---------------------|-----------------|
|-----2----4------5p4-|-----2---4---5p4-|
|---2---2------2------|---2---2---2-----|
|-2-------------------|-2---------------|
|
|       ~~~~~~~~~~
| Q   E Q     +Q    E   Q   E Q   Q   E
|---------------------|-----------------|
|---------------------|-------7---------|
|-6h==7-4-----(4)-----|-6h==7-----7p==6-|
|-------------------4-|-----------------|
|---------------------|-----------------|
|---------------------|-----------------|
|
| Gtr III
|       ~~~~~~                        ~~~
| Q   E E +H            Q   E Q   Q   E
|---------------------|-------7---------|
|-5h==7-3-(3)---------|-5h==7-----7---8-|
|---------------------|-----------------|
|---------------------|-----------------|
|---------------------|-----------------|
|---------------------|-----------------|


   PM---------|       PM-----------------|
   E  E E E E E E E   E E  E      E   E  E E E
|-------------------|--------------------------|
|-------------------|--------------------------|
|-------------------|--------------------------|
|-------2---4---5p4-|------2----------4----5p4-|
|-----2---2---2-----|---2---------2------2-----|
|--3----------------|-3------------------------|
|
|  ~~~
|  W                  Q    E      Q      Q   E
|-------------------|--------------------------|
|-------------------|--------------------------|
|--6----------------|-6h===7p=====6------------|
|-------------------|--------------------5---4-|
|-------------------|--------------------------|
|-------------------|--------------------------|
|
|~~~~~                            ~~~~~~~
| +W                  Q   +E     +E  +H
|-------------------|--------------------------|
|-(8)---------------|-8---(8)b10r(8)-(8)-------|
|-------------------|--------------------------|
|-------------------|--------------------------|
|-------------------|--------------------------|
|-------------------|--------------------------|


  PM----------|         PM--------|
  E E E E  E   E  E E   E E E E E E E E
|---------------------|-----------------|
|---------------------|-----------------|
|---------------------|-----------------|
|-----2----4------5p4-|-----2---4---5p4-|
|---2---2------2------|---2---2---2-----|
|-2-------------------|-2---------------|
|
|       ~~~~~~~~~~
| Q   E Q     +Q    E   Q   E Q   Q   E
|---------------------|-----------------|
|---------------------|-------7---------|
|-6h==7-4-----(4)-----|-6h==7-----7p==6-|
|-------------------4-|-----------------|
|---------------------|-----------------|
|---------------------|-----------------|
|
|       ~~~~~~                        ~~~
| Q   E E +H            Q   E Q   Q   E
|---------------------|-------7---------|
|-5h==7-3-(3)---------|-5h==7-----7---6-|
|---------------------|-----------------|
|---------------------|-----------------|
|---------------------|-----------------|
|---------------------|-----------------|


   PM-----|           ~~~~~~~~~~~~~~~
             |-3--|
   E  E E E  Q  Q Q   H          +Q   S S E
|-------------------|-----------------------|
|-------------------|-----------------------|
|-------------------|-----------------------|
|-------2----4------|-----------------------|
|-----2---2-----2-0-|-----------------2-2---|
|--3----------------|-3----------(3)--------|
|
|  ~~~~~~~~~~~~~
|            |-3--|
| +H        +Q  Q Q   Q     +Q    Q   S S E
|-------------------|-----------------------|
|-------------------|-----------------------|
|-(6)-------(6)-6-7-|-7b9r==(7)---6---0-0---|
|-------------------|-----------------------|
|-------------------|-----------------------|
|-------------------|-----------------------|
|
|~~~~~~~~~~~~~~~             ~~~
|            |-3--|
| +H        +Q  Q Q   Q     +Q    Q   S S E
|---------------6-7-|-8b10r=(8)---6---------|
|-(6)-------(6)-----|-----------------9-9---|
|-------------------|-----------------------|
|-------------------|-----------------------|
|-------------------|-----------------------|
|-------------------|-----------------------|


    E E E E E E E E   E E E E E E E E
||------------------|-----------------|
||o---8-7-----8-7---|---8-7-----8---7-|
||--------4-------5-|-------4---------|
||------------------|-----------------|
||o-----------------|-----------------|
||------------------|-----------------|
|
|   E E E E E E E E   E E E E E E E E
||------------------|-----------------|
||o-----------------|-----------------|
||------------------|-----------------|
||----5-4-----5-4---|---5-4-----5---4-|
||o-------2-------3-|-------2---------|
||------------------|-----------------|


  E E E E E E E E   E E E E E S S E S S   3x
|-----------------|-----------7-7---5-5---||
|---8-7-----8-7-5-|---8-7----------------o||
|-------4---------|-------4---------------||
|-----------------|-----------------------||
|-----------------|----------------------o||
|-----------------|-----------------------||
|
| E E E E E E E E   E E E E E S S E S S   3x
|-----------------|-----------------------||
|-----------------|----------------------o||
|-----------------|-----------------------||
|---5-4-----5-4---|---5-4-----5-5---4-4---||
|-------2-------3-|-------2--------------o||
|-----------------|-----------------------||


  E E E E E E E E   E E E E E E E E   E E E E E E E E   E E E E E S S E S S
|-----------------|-----------------|-----------------|-----------7-7---5-5-|
|---8-7-----8-7---|---8-7-----8---7-|---8-7-----8-7-5-|---8-7---------------|
|-------4-------5-|-------4---------|-------4---------|-------4-------------|
|-----------------|-----------------|-----------------|---------------------|
|-----------------|-----------------|-----------------|---------------------|
|-----------------|-----------------|-----------------|---------------------|
|
| E E E E E E E E   E E E E E E E E   E E E E E E E E   E E E E E S S E S S
|-----------------|-----------------|-----------------|---------------------|
|-----------------|-----------------|-----------------|---------------------|
|-----------------|-----------------|-----------------|---------------------|
|---5-4-----5-4---|---5-4-----5---4-|---5-4-----5-4---|---5-4-----5-5---4-4-|
|-------2-------3-|-------2---------|-------2-------0-|---------------------|
|-----------------|-----------------|-----------------|-------3-------------|


  Gtr IV
  E E E E +H       +Q   +E  E E E E E   E E E E +H       E E E Q  E. E.
|----------------|------------0-------|----------------|-----------------|
|----------------|--------------0-----|-------3-(3)----|-------1--0------|
|-------0-(0)----|-(0)--(0)-------0---|-----0----------|-----0-------0---|
|-----2----------|--------------------|---4------------|---2-------------|
|---2------------|------------------0-|-5--------------|-3---------------|
|-0--------------|----------0---------|----------------|-----------------|


  E E E E +H       +Q   +E  E E E E E   E E E Q  E. E.    E E E E +H
|----------------|------------0-------|-----------------|-------0-(0)-------|
|----------------|--------------0-----|-------3---------|-------1-(1)-------|
|-------0-(0)----|-(0)--(0)-------0---|-----0----5--4---|-----0-------------|
|-----2----------|--------------------|---4-------------|---2---------------|
|---2------------|------------------0-|-5---------------|-3-----------------|
|-0--------------|----------0---------|-----------------|-------------------|
|
| Gtr I
| W                 W                   W                 H        Q    Q
|----------------|--------------------|-----------------|-------------------|
|----------------|--------------------|-----------------|-------------------|
|----------------|--------------------|-----------------|-------------------|
|----------------|--------------------|-----------------|-------------------|
|----------------|--------------------|-----------------|-------------------|
|----------------|--------------------|-----------------|--------------12\--|


  Gtr I
  Q.        H    +E    Q.        H    +E
|--------------------|--------------------|
|--------------------|--------------------|
|--------------------|--------------------|
|-3---------2----(2)-|-3---------2----(2)-|
|-3---------2----(2)-|-3---------2----(2)-|
|-1---------0----(0)-|-1---------0----(0)-|
|
| Gtr II
| |-3--|               |-3--|
| S  S S Q  H    +E    S  S S Q  H    +E
|--------1--3----(3)-|--------1--3----(3)-|
|------1----0----(0)-|------1----0----(0)-|
|----1------0----(0)-|----1------0----(0)-|
|-3---------2----(2)-|-3---------2----(2)-|
|--------------------|--------------------|
|--------------------|--------------------|


                  PM-|
  Q.        H     S  S   E.       E. H    +E
|----------------------|----------------------|
|----------------------|----------------------|
|----------------------|----------------------|
|-3---------2----------|-3--------3--2----(2)-|
|-3---------2----------|-3--------3--2----(2)-|
|-1---------0-----0--0-|-1--------1--0----(0)-|
|
| |-3--|                 |-3--|
| S  S S Q  H    +E      S  S S Q    H    +E
|--------1--3----(3)---|--------4----3----(3)-|
|------1----0----(0)---|------1------0----(0)-|
|----1------0----(0)---|----1--------0----(0)-|
|-3---------2----(2)---|-3-----------2----(2)-|
|----------------------|----------------------|
|----------------------|----------------------|


                  PM-|
  Q.        H     S  S   E.       E. H    +E
|----------------------|----------------------|
|----------------------|----------------------|
|----------------------|----------------------|
|-3---------2----------|-3--------3--2----(2)-|
|-3---------2----------|-3--------3--2----(2)-|
|-1---------0-----0--0-|-1--------1--0----(0)-|
|
| |-3--|                 |-3--|
| S  S S Q  H    +E      S  S S Q    H    +E
|--------1--3----(3)---|--------1----3----(3)-|
|------1----0----(0)---|------1------0----(0)-|
|----1------0----(0)---|----1--------0----(0)-|
|-3---------2----(2)---|-3-----------2----(2)-|
|----------------------|----------------------|
|----------------------|----------------------|


                  PM-|
  Q.        H     S  S   E.       E. Q.    Q
|----------------------|----------------------------|
|----------------------|----------------------------|
|----------------------|----------------------------|
|-3---------2----------|-3--------3--2--------------|
|-3---------2----------|-3--------3--2--------------|
|-1---------0-----0--0-|-1--------1--0----12\-------|
|
| |-3--|                 |-3--|
| S  S S Q  H    +E      S  S S Q    H        +E
|--------1--3----(3)---|--------4----3--------(3)---|
|------1----0----(0)---|------1------0--------(0)---|
|----1------0----(0)---|----1--------0--------(0)---|
|-3---------2----(2)---|-3-----------2--------(2)---|
|----------------------|----------------------------|
|----------------------|----------------------------|


                    PM-|                       PM-|
  Q.        Q.   E  S  S   E.       E. Q.   E  S  S
|------------------------|--------------------------|
|------------------------|--------------------------|
|------------------------|--------------------------|
|-3---------2----2-------|-3--------3--2----2-------|
|-3---------2----2-------|-3--------3--2----2-------|
|-1---------0----0--0--0-|-1--------1--0----0--0--0-|
|
| |-3--|                   |-3--|
| S  S S Q  H      +E      S  S S Q    H      +E
|--------1--3------(3)---|--------1----3------(3)---|
|------1----0------(0)---|------1------0------(0)---|
|----1------0------(0)---|----1--------0------(0)---|
|-3---------2------(2)---|-3-----------2------(2)---|
|------------------------|--------------------------|
|------------------------|--------------------------|


                    PM-|                       PM-|
  Q.        Q.   E  S  S   E.       E. Q.   E  S  S
|------------------------|--------------------------|
|------------------------|--------------------------|
|------------------------|--------------------------|
|-3---------2----2-------|-3--------3--2----2-------|
|-3---------2----2-------|-3--------3--2----2-------|
|-1---------0----0--0--0-|-1--------1--0----0--0--0-|
|
| |-3--|                   |-3--|
| S  S S Q  H      +E      S  S S Q    H      +E
|--------1--3------(3)---|--------4----3------(3)---|
|------1----0------(0)---|------1------0------(0)---|
|----1------0------(0)---|----1--------0------(0)---|
|-3---------2------(2)---|-3-----------2------(2)---|
|------------------------|--------------------------|
|------------------------|--------------------------|


                      PM-|                       PM-|
  E.       E. Q.   E  S  S   E.       E. Q.   E  S  S
|--------------------------|--------------------------|
|--------------------------|--------------------------|
|--------------------------|--------------------------|
|-3--------3--2----2-------|-3--------3--2----2-------|
|-3--------3--2----2-------|-3--------3--2----2-------|
|-1--------1--0----0--0--0-|-1--------1--0----0--0--0-|
|
| |-3--|                     |-3--|
| S  S S Q    H      +E      S  S S Q    H      +E
|--------1----3------(3)---|--------1----3------(3)---|
|------1------0------(0)---|------1------0------(0)---|
|----1--------0------(0)---|----1--------0------(0)---|
|-3-----------2------(2)---|-3-----------2------(2)---|
|--------------------------|--------------------------|
|--------------------------|--------------------------|


                      PM-|
  E.       E. Q.   E  S  S   E.       E. Q.    Q
|--------------------------|---------------------------|
|--------------------------|---------------------------|
|--------------------------|---------------------------|
|-3--------3--2----2-------|-7--------7--5-------------|
|-3--------3--2----2-------|-5--------5--3-------------|
|-1--------1--0----0--0--0-|-5--------5--3----12\------|
|
| |-3--|                     |-3--|
| S  S S Q    H      +E      S  S S Q    H        +E
|--------1----3------(3)---|---------------------------|
|------1------0------(0)---|------0-3----1--------(1)--|
|----1--------0------(0)---|----0----------------------|
|-3-----------2------(2)---|-0-------------------------|
|--------------------------|---------------------------|
|--------------------------|---------------------------|


  PM-----|      PM---|                                       PM------|
  S    S S E S  S  S S  Q  S E       +E  S   S   S Q         S S S S S S S
|----------------------------------|---------------------------------------|
|----------------------------------|---------------------------------------|
|----------------------------------|-----------------------------------4-6-|
|----------------------------5-----|-(5)---------------------------4-5-----|
|-5----7-4------5--7-4-------5-----|-(5)-5---7---4-----------4-5-7---------|
|----------------------------3-----|-(3)-----------------------------------|
|
| Gtr V
|                    ~~                                    PM--------|
|                            |-3-|       |--3--|     |-3-|
| Q.           +E    Q.      S S S    E  S S   S E   S S S S S S S S S S S
|----------------------------------|---------------------------------------|
|----------------------------------|-----------------------------------7-8-|
|-9b11r========(9)---6-------7p6p4-|-----7p6p==4-----7p6p4-------4-6-7-----|
|----------------------------------|--5----------4---------4-5-7-----------|
|----------------------------------|---------------------------------------|
|----------------------------------|---------------------------------------|


                                PM--|
  S E   Q..                     S S  S  E.
|-----------------------------------------------|
|-----------------------------------------------|
|-----------------------------------------------|
|-5-----2---------------------------------------|
|-------2---------------------------------------|
|-------0-----------------------3-5--2----------|
|
| S S S S   S  S S S  T T  T T  S S  S  S  S  S
|-5--------------7-9-10p9h10p9----9-10h12s14-15-|
|-------7---8-10---------------12---------------|
|---6-7-----------------------------------------|
|-----------------------------------------------|
|-----------------------------------------------|
|-----------------------------------------------|


        PM-----------------------------------------------------------------|
   S    S     S    S    S    S   S   S   S   S   S   S   S   S   T T   T   T
|-----------------------------------------------------------------------------|
|-----------------------------------------------------------------------------|
|-----------------------------------------------------------------------------|
|------------------------------------5---7---5---4----------------------------|
|-----------------------4----5---2-------------------7---6---5---4-3----------|
|-------3-----5----2---------------------------------------------------7---6--|
|
|  |---3---|  |---3---| |--3---| |--3--| |--3--| |--3--| |--3--| |---3---|
|  S  S    S  S  S    S S  S   S S S   S S S   S S S   S S S   S S   S   S
|-12h15p==12-10h14p==10-9h12p==9-5h9p==5-3h7p==3-2h5p==4p3p2s==1p0------------|
|--------------------------------------------------------------------4p==3p===|
|-----------------------------------------------------------------------------|
|-----------------------------------------------------------------------------|
|-----------------------------------------------------------------------------|
|-----------------------------------------------------------------------------|


  PM---|     PM---|
  S  S S E S S S  S    Q        S   E
|----------------------------------------|
|----------------------------------------|
|----------------------------------------|
|-----------------------------------5----|
|-5--7-4-----5-7--4-----------------5----|
|-----------------------------------3----|
|
| ~~                                  ~~~~
| E.     E E   S.   S.   S. S S   S   S.
|--------4-----5---------6----7-------9--|
|-2--------3--------4-------5-----7------|
|----------------------------------------|
|----------------------------------------|
|----------------------------------------|
|----------------------------------------|


                               PM---------|
  +E   S  S  S  Q              S  S  S  S  S  S  S
|---------------------------------------------------|
|---------------------------------------------------|
|---------------------------------------------4--6--|
|-(5)-----------------------------------4--5--------|
|-(5)--5--7--4-----------------4--5--7--------------|
|-(3)-----------------------------------------------|
|
|~~~~~~~~~
|                     |--3--|
| +E  +S  S  S  S  S  S  S  S  S  S  S  S  S  S  S
|-(9)-(9)-9-10-12-14-12h14p12----12-------12-14-15--|
|-----------------------------15----14-15-----------|
|---------------------------------------------------|
|---------------------------------------------------|
|---------------------------------------------------|
|---------------------------------------------------|


                                        PM---|
   S    E        Q..                    S  S  S  E.
|---------------------------------------------------------|
|---------------------------------------------------------|
|---------------------------------------------------------|
|--5-------------2----------------------------------------|
|----------------2----------------------------------------|
|----------------0----------------------3--5--2-----------|
|
|  |---3---|
|  S  S    S  S  S    S  S  S  S  S  S  S  S  S  S   S  S
|-14h15p==14----14---15-17s19-15-19-14-19----19-----19----|
|------------17---------------------------17----16-----15-|
|---------------------------------------------------------|
|---------------------------------------------------------|
|---------------------------------------------------------|
|---------------------------------------------------------|


      PM--------------------------------------------|
   S  S  S  S  S  S  S  S  S  S  S  S  S  S  T T  T T
|-----------------------------------------------------|
|-----------------------------------------------------|
|-----------------------------------------------------|
|-----------------------5--7--5--4--------------------|
|--------------4--5--2--------------7--6--5--4-3------|
|-----3--5--2-------------------------------------7-6-|
|
|  S  S  S  S  S  S  S  S  S  S  S  S  S  S  S    S
|-----------------------------------------------------|
|----14-----------------------------------------------|
|-16----15-------------14-17-16------------------15---|
|----------16-------15----------15-14-------15--------|
|-------------17-16-------------------17-16-----------|
|-----------------------------------------------------|


   PM---|       PM----|
   S  S S E S   S   S  S Q          S    E
|---------------------------------------------|
|---------------------------------------------|
|---------------------------------------------|
|----------------------------------------5----|
|--5--7-4-------5---7--4-----------------5----|
|----------------------------------------3----|
|
|  ~~~
|                      |---3---|  |----3----|
|  Q.          +E      E    E  E  E    E    E
|-----------------------------15s19-----------|
|--------------------------12---------17------|
|-13----------(13)\---13-------------------18-|
|---------------------------------------------|
|---------------------------------------------|
|---------------------------------------------|


                              PM-------------|
  +E     S    S  S Q          S    S    S  S S    S    S
|---------------------------------------------------------|
|---------------------------------------------------------|
|-------------------------------------------------4----6--|
|-(5)--------------------------------------4-5------------|
|-(5)----5----7--4------------4----5----7-----------------|
|-(3)-----------------------------------------------------|
|
|  |---3----|    |---3---|  |----3----|    |----3----|
|  E   E    E    E    E  E  E    E    E    E    E    E
|-----19--------20------21--------------------------------|
|-17-------17--------17----17------------------17---19----|
|-------------------------------18--------18--------------|
|------------------------------------17-------------------|
|---------------------------------------------------------|
|---------------------------------------------------------|


                                   PM---|
   S E Q..                         S  S  S  E.
|----------------------------------------------------------|
|----------------------------------------------------------|
|----------------------------------------------------------|
|--5---2---------------------------------------------------|
|------2---------------------------------------------------|
|------0---------------------------3--5--2-----------------|
|
|            ~~~~
|                |--3--|
|  Q        +E   T  T  T  S  S  S  S  S  S  S   T  T  T  T
|------------------------------------19-21-22--21h22p21-19-|
|-20-------(20)-19h20p19-17-19-20s22-----------------------|
|----------------------------------------------------------|
|----------------------------------------------------------|
|----------------------------------------------------------|
|----------------------------------------------------------|


      PM-------------------------------------------------------------|
   S  S     S  S     S  S     S  S     S  S  S     S     S  S T  T T  T
|------------------------------------------------------------------------|
|------------------------------------------------------------------------|
|------------------------------------------------------------------------|
|--------------------------------5-----7--5--4---------------------------|
|--------------------4--5-----2--------------------7-----6--5-4--3-------|
|-----3-----5--2---------------------------------------------------7--6--|
|
|  S  S  a  S  T  T  S  T  T  S  T  T  S  S  T  T  T  T  S  S T  T T  T
|----19-15h17------------------------------------------------------------|
|-22----------19-17-16-18-17-14-16-14-12-14-12h14-12---------------------|
|----------------------------------------------------14-11-12-9h11p9-----|
|--------------------------------------------------------------------12--|
|------------------------------------------------------------------------|
|------------------------------------------------------------------------|


   PM--|     PM--|
   S S S E S S S S  Q    S E
|----------------------------|
|----------------------------|
|----------------------------|
|--------------------------5-|
|--5-7-4-----5-7-4---------5-|
|--------------------------3-|
|
|  ~~
|  H             Q     Q
|----------------------------|
|----------------------------|
|----------------------------|
|-11-------------x\---/x-----|
|----------------------------|
|----------------------------|


                             PM------------|
  +E     S    S S Q          S    S   S  S S   S    S
|------------------------------------------------------|
|------------------------------------------------------|
|----------------------------------------------4----6--|
|-(5)------------------------------------4-5-----------|
|-(5)----5----7-4------------4----5---7----------------|
|-(3)--------------------------------------------------|
|
|           PM---------|        PM---------------|
|  |---3----|   |---3---|  |---3----|    |---3----|
|  E   E    E   E    E  E  E    E   E    E   E    E
|------------------------------------------------------|
|------------------------------------------------------|
|------------------------------------------------------|
|-12--11--------9---11-12-11-----------------9---11----|
|----------10------------------10---9---12-------------|
|------------------------------------------------------|


              PM-----|
   S E Q..    S   S  S E.
|---------------------------|
|---------------------------|
|---------------------------|
|--5---2--------------------|
|------2--------------------|
|------0------3---5--2------|
|
|  PM  ~~~                PM-
|  S E Q..   +S   Q       S
|---------------------------|
|---------------------------|
|------9-----(9)s24\--------|
|-------------------------9-|
|-10------------------------|
|---------------------------|


     PM----------------------------------------------|
   S S S  S S  S  S S  S S    S   S  S S    T T    T T
|------------------------------------------------------|
|------------------------------------------------------|
|------------------------------------------------------|
|-------------------5--7-5----4------------------------|
|-----------4--5--2---------------7--6-5----4-3--------|
|----3-5--2----------------------------------------7-6-|
|
|----------------------------------------|
|                      |---3----|    |-----3-----|
|  S S S  S S  S  S S  E    E   E    E    E      E
|------------------------------------------------------|
|------------------------------------------------------|
|-------------------------------9---11---12-----14-----|
|----9--------------9-11---12--------------------------|
|-10---9-10-9-10-12------------------------------------|
|------------------------------------------------------|


 4/4
  Gtr I
   PM-----------|            PM------------------------|
   E    E E E E  E  E  E     E     E  E     E     E     E     E     E
|-------------------------|----------------------------------------------|
|-------------------------|----------------------------------------------|
|-------------------------|----------------------------------------------|
|---------2---4-----5p=4--|-----------2-----------4-----------5p====4----|
|-------2---2----2--------|--------2--------2-----------2----------------|
|--2----------------------|--2-------------------------------------------|
|
| Gtr II
|           ~~~~~~~~
|  Q      E Q   +Q     E     Q        E     Q           Q           E
|-------------------------|-----------------7----------------------------|
|--5h=====7-3---(3)---(3)-|--5h=======7-----7-----------7-----------8----|
|--6h=====7-4---(4)-------|--6h=======7-----------------7p==========6----|
|----------------------4--|----------------------------------------------|
|-------------------------|----------------------------------------------|
|-------------------------|----------------------------------------------|
|
| Gtr V
|  ~~~~~
|  W                         E     E  S  S  S  S  S  S  S  S  S  S  S  S
|-------------------------|----------------------------------------------|
|-------------------------|-------12-------------------------------------|
|-14b16-------------------|----------14p11----11-------------------------|
|-------------------------|-14b16----------14----14p12p11h12-14p11----12-|
|-------------------------|----------------------------------------14----|
|-------------------------|----------------------------------------------|


   PM----------------|        PM-------------------------------|
   E    E E  E     E E E E    E    E     E         E      E     E      E     E
|--------------------------|----------------------------------------------------------|
|--------------------------|----------------------------------------------------------|
|--------------------------|----------------------------------------------------------|
|---------2--------4---5p4-|-------------2----------------4------------5p====4--------|
|-------2----2-------2-----|-------2---------------2------------2---------------------|
|--3-----------------------|--3-------------------------------------------------------|
|
|  ~~~~~
|  W                          Q          E         Q            Q            E
|--------------------------|----------------------------------------------------------|
|-(8)----------------------|--8---------(8)b10r===(8)----------(8)----------(8)-------|
|--6-----------------------|--6h=========7p========6----------------------------------|
|--------------------------|------------------------------------5------------4--------|
|--------------------------|----------------------------------------------------------|
|--------------------------|----------------------------------------------------------|
|
|  ~~~~~           ~~
|                             |---3---|  |------3------|  |----3----|  |----3----|
|  Q.        S  S  H          E  E    E  E      E      E  E  E      E  E  E      E
|--------------------------|----------------------------------------------------------|
|--------------------------|---------------------------------------11-12--------14----|
|--------------------------|--------------------------11-12--------------11-----------|
|-14b15-----14p12-14-------|---------11-12------------------14------------------------|
|--------------------------|-------------------14-------------------------------------|
|--------------------------|-12h14----------------------------------------------------|


   PM---------|                  PM---------------|
   E E E E  E  E     E     E     E E    E    E  E E    E    E
|-----------------------------|----------------------------------|
|-----------------------------|----------------------------------|
|-----------------------------|----------------------------------|
|------2----4--------5p====4--|---------2-------4------5p===4----|
|----2---2-----2--------------|----2---------2----2--------------|
|--2--------------------------|--2-------------------------------|
|
|        ~~~~~~~~~
|  Q   E Q    +Q           E     Q      E    Q    Q         E
|-----------------------------|--------------7-------------------|
|--5h==7-3----(3)---------(3)-|--5h=====7----7----7---------6----|
|--6h==7-4----(4)-------------|--6h=====7---------7p========6----|
|--------------------------4--|----------------------------------|
|-----------------------------|----------------------------------|
|-----------------------------|----------------------------------|
|
|  ~~~
|           |-----3-----|        |----3----|    |----3----|
|  H        q      q    q        Q    Q    Q    Q    Q    Q
|-----------------12---13-----|-14s==19---18---17----------------|
|-15-------15-----------------|---------------------19---15------|
|-----------------------------|----------------------------------|
|-----------------------------|----------------------------------|
|-----------------------------|----------------------------------|
|-----------------------------|----------------------------------|


   PM--------|
                       |----------3----------|
   E  E   E   E        Q           Q         Q
|----------------------------------------------------|
|----------------------------------------------------|
|----------------------------------------------------|
|---------2------------4-----------------------------|
|-----2-------2--------------------2---------0-------|
|--3-------------------------------------------------|
|
|  ~~~~~~~~~~~~~~~~~~~~~~~
|                      |----------3----------|
| +H                  +Q           Q         Q
|----------------------------------6---------7-------|
|-(6)-----------------(6)----------------------------|
|-(6)-----------------(6)----------6---------7-------|
|----------------------------------------------------|
|----------------------------------------------------|
|----------------------------------------------------|
|
|  ~~~~~~~~~~
|             |--3--|  |--3--|  |--3--| |-3--| |-3-|
|  Q     +E   S  S  S  S  S  S  S  S  S S  S S S S S
|----------------------------------------------------|
|-18----(18)-15h18p15-14h15p14-11h12p11-9h11p9-7h9p7-|
|----------------------------------------------------|
|----------------------------------------------------|
|----------------------------------------------------|
|----------------------------------------------------|


   H                           H
|-------------------------------------------------------|
|-------------------------------------------------------|
|-------------------------------------------------------|
|------------------------------5------------------------|
|-------------------------------------------------------|
|--3----------------------------------------------------|
|
|  Q               Q           Q           Q
|--8b10r==========(8)----------6------------------------|
|------------------------------------------9------------|
|-/9---------------7-----------6------------------------|
|------------------------------------------7------------|
|-------------------------------------------------------|
|-------------------------------------------------------|
|
|                                    PM--------------|
|  |--3---| |-3-|  |-3-| |-3-| |-3-| |-3-| |-3-| |-3-|
|  S    S S S S S  S S S S S S S S S S S S S S S S S S
|----------------------------------------------------3--|
|------------------------------------------------3-5----|
|--7h===9p7--------------------------------2-4-5--------|
|-----------8h9p8--4h6p4-2h4p2-0h2p0-2-4-5--------------|
|-------------------------------------------------------|
|-------------------------------------------------------|


 4/4
  Gtr I
  PM--------|            PM-----------|
  E E E E E  E  E  E     E  E E E  E  E  E   E
|---------------------|------------------------|
|---------------------|------------------------|
|---------------------|------------------------|
|-----2---4-----5p=4--|-------2----4-----5p==4-|
|---2---2----2--------|-----2---2-----2--------|
|-2-------------------|--2---------------------|
|
| Gtr II
|       ~~~~~~~~
| Q   E Q   +Q     E     Q    E Q     Q      E
|---------------------|---------7--------------|
|-5h==7-3---(3)---(3)-|--5h===7-7-----7------8-|
|-6h==7-4---(4)-------|--6h===7-------7p=====6-|
|------------------4--|------------------------|
|---------------------|------------------------|
|---------------------|------------------------|
|
| ~~~~~~~~~~~~~~~~~~~~~~~~~~~~~~~~~~~~
| W                     +H        +Q    +Q
|-2-------------------|-(2)-------(2)---(2)\---|
|---------------------|------------------------|
|---------------------|------------------------|
|---------------------|------------------------|
|---------------------|------------------------|
|---------------------|------------------------|


   PM---------|       PM---------------|
   E  E E E E E E E   E E  E      E  E  E  E  E
|-------------------|-----------------------------|
|-------------------|-----------------------------|
|-------------------|-----------------------------|
|-------2---4---5p4-|------2---------4-----5p=4---|
|-----2---2---2-----|---2---------2-----2---------|
|--3----------------|-3---------------------------|
|
|  ~~~
|  W                  Q    E      Q     Q     E
|-------------------|-----------------------------|
|-(8)---------------|-8---(8)b10r(8)---(8)---(8)--|
|--6----------------|-6h===7p=====6---------------|
|-------------------|-------------------5-----4---|
|-------------------|-----------------------------|
|-------------------|-----------------------------|
|
|  W                  W
|-------------------|-----------------------------|
|-------------------|-----------------------------|
|-------------------|-----------------------------|
|-------------------|-----------------------------|
|-------------------|-----------------------------|
|-------------------|-----------------------------|


  PM----------|         PM--------|
  E E E E  E   E  E E   E E E E E E E E
|---------------------|-----------------|
|---------------------|-----------------|
|---------------------|-----------------|
|-----2----4------5p4-|-----2---4---5p4-|
|---2---2------2------|---2---2---2-----|
|-2-------------------|-2---------------|
|
|       ~~~~~~~~~~
| Q   E Q     +Q    E   Q   E Q   Q   E
|---------------------|-----------------|
|---------------------|-------7---------|
|-6h==7-4-----(4)-----|-6h==7-----7p==6-|
|-------------------4-|-----------------|
|---------------------|-----------------|
|---------------------|-----------------|
|
| Gtr III
|       ~~~~~~                        ~~~
| Q   E E +H            Q   E Q   Q   E
|---------------------|-------7---------|
|-5h==7-3-(3)---------|-5h==7-----7---6-|
|---------------------|-----------------|
|---------------------|-----------------|
|---------------------|-----------------|
|---------------------|-----------------|


   PM-----|
             |-3--|
   E  E E E  Q  Q Q    H          H
|-------------------|--------------------|
|-------------------|--------------------|
|-------------------|--------------------|
|-------2----4------|-------------5------|
|-----2---2-----2-0-|--------------------|
|--3----------------|--3-----------------|
|
|  ~~~~~~~~~~~~~
|            |-3--|
| +H        +Q  Q Q    Q      Q   Q  Q
|-------------------|--------------------|
|-------------------|--------------------|
|-(6)-------(6)-6-7-|-/9------7---6------|
|-------------------|----------------7---|
|-------------------|--------------------|
|-------------------|--------------------|
|
|~~~~~~~~~~~~~~~              ~~~
|            |-3--|
| +H        +Q  Q Q    Q     +Q   Q  Q
|---------------6-7-|--8b10r=(8)--6------|
|-(6)-------(6)-----|----------------9---|
|-------------------|--------------------|
|-------------------|--------------------|
|-------------------|--------------------|
|-------------------|--------------------|


  PM----|   PM      PM|   PM  PM
  E E E E E E E E   E E E E E E E  E
|-----------------|------------------|
|-----------------|------------------|
|-----------------|------------------|
|-----6---8---6---|-----6---8---6----|
|---6---6---6---6-|---6---6---6----6-|
|-4---------------|-4----------------|
|
| ~
| W                 Q   E Q   Q    E
|-----------------|------------------|
|-----------------|------------------|
|-----------------|------------------|
|-6---------------|-8h==9-6----------|
|-----------------|-----------6----5-|
|-----------------|------------------|
|
| ~
| W                 Q   E Q   Q    E
|-----------------|------------------|
|-----------------|---------------/7-|
|-8---------------|-6h==8-4----------|
|-----------------|-----------6------|
|-----------------|------------------|
|-----------------|------------------|


      PM  PM  PM  PM----|               ~~~~~~
   E  E E E E E E E   E E  E     E   E  E +Q
|-------------------|--------------------------|
|-------------------|--------------------------|
|-------7---9---7---|------6-------------------|
|-----7---7---7---7-|---6--------6--/7---------|
|--5----------------|-4-----------------7-(7)--|
|-------------------|--------------------------|
|
|  ~~~~~~~~~~~~~~~~~~~~~                ~~~~~~
| +W                  H             +E  E +Q
|-------------------|--------------------------|
|-------------------|--------------------------|
|-------------------|--------------------------|
|-------------------|--------------------------|
|-(5)---------------|-4-------------(4)--------|
|-------------------|-------------------5-(5)--|
|
|  ~~~                           ~~~~~~~
| +W                  Q   +E    +E  +H
|-------------------|--------------------------|
|-(7)---------------|-6---(6)b7r(6)-(6)--------|
|-------------------|--------------------------|
|-------------------|--------------------------|
|-------------------|--------------------------|
|-------------------|--------------------------|


  PM----|     PM      PM|   PM  PM
  E E E E  E  E E E   E E E E E E E E
|-------------------|-----------------|
|-------------------|-----------------|
|-------------------|-----------------|
|-----6----8----6---|-----6---8---6---|
|---6---6-----6---6-|---6---6---6---6-|
|-4-----------------|-4---------------|
|
|       ~~~~~~
| Q   E E +H          Q   E Q   Q   E
|-------------------|-----------------|
|-------------------|-----------------|
|-------------------|-------8---------|
|-8h==9-6-(6)-------|-8h==9-----9p==8-|
|-------------------|-----------------|
|-------------------|-----------------|
|
| ~~
| W                   Q   E Q   Q   E
|-------------------|-----------------|
|-------------------|-------9---------|
|-8-----------------|-6h==8-----8---6-|
|-------------------|-----------------|
|-------------------|-----------------|
|-------------------|-----------------|


      PM  PM              ~~
              |--3---|
    E E E E   Q   Q  Q    W
|----------------------|-------------------|
|----------------------|-------------------|
|-------7----/9---7--5-|--4----------------|
|-----7---7------------|-------------------|
|---5------------------|-------------------|
|----------------------|-------------------|
|
|   ~~~~~~~~~~~~~         ~~~~~~~~~
|             |--3---|
|   H        +Q   Q  Q    H    +Q   +Q
|----------------------|-------------------|
|----------------------|-------------------|
|----------------------|-------------------|
|---7--------(7)-/7--6-|--5----(5)--(5)\---|
|----------------------|-------------------|
|----------------------|-------------------|
|
|   ~~~~~~~~~~~~~         ~~
|             |--3---|
|   H        +Q   Q  Q    W
|----------------------|-10----------------|
|----------------------|-------------------|
|-/11-------(11)--9-11-|-------------------|
|----------------------|-------------------|
|----------------------|-------------------|
|----------------------|-------------------|


 4/4
  Gtr I
  PM----------|         PM--------|
  E E E E  E   E  E E   E E E E E E E E
|---------------------|-----------------|
|---------------------|-----------------|
|---------------------|-----------------|
|-----2----4------5p4-|-----2---4---5p4-|
|---2---2------2------|---2---2---2-----|
|-2-------------------|-2---------------|
|
| Gtr II
|       ~~~~~~~~~~
| Q   E Q     +Q    E   Q   E Q   Q   E
|---------------------|-----------------|
|---------------------|-------7---------|
|-6h==7-4-----(4)-----|-6h==7-----7p==6-|
|-------------------4-|-----------------|
|---------------------|-----------------|
|---------------------|-----------------|
|
|       ~~~~~~                        ~~~
| Q   E E +H            Q   E Q   Q   E
|---------------------|-------7---------|
|-5h==7-3-(3)---------|-5h==7-----7---8-|
|---------------------|-----------------|
|---------------------|-----------------|
|---------------------|-----------------|
|---------------------|-----------------|


   PM---------|       PM-----------------|
   E  E E E E E E E   E E  E      E   E  E E E
|-------------------|---------------------------|
|-------------------|---------------------------|
|-------------------|---------------------------|
|-------2---4---5p4-|------2----------4----5p4--|
|-----2---2---2-----|---2---------2------2------|
|--3----------------|-3-------------------------|
|
|  ~~~
|  W                  Q    E      Q      Q   E
|-------------------|---------------------------|
|-------------------|---------------------------|
|--6----------------|-6h===7p=====6-------------|
|-------------------|--------------------5---4--|
|--------
Добавлено: 09.05.2012
Другие материалы по этой песне:

Страница создана 09.05.2012
http://primanota.ru/ihsahn/unhealer-chords.htm
Привет, Гость.
Предлагаем пройти революционный курс по гитаре.
Подарок от PrimaNota.Ru, забирай!