PrimaNota.ru - самый крупный в мире бесплатный архив песенных текстов, аккордов, табулатур и нот


Ihsahn - Frozen Lakes On Mars - таба, видео

Регистрация Запомнить меня
Войти через:  Facebook Google Twitter Vk Yandex Mail.ru

Ihsahn - Frozen Lakes On Mars - таба, видео

Печатать
Просмотров: 145
Уроки эстрадного вокала в Санкт-Петербурге
Ihsahn
Frozen Lakes on Mars (Intro)
After (2010)


Guitar 1
E|-------------------------------------------|
B|-------------------------------------------|
G|-----------6~~~~~~~~~~~~~-4~~~~~-----------|
D|-----7-6-----------------------------------|
A|---------4---------------------------------|
E|-------------------------------------------|

Guitar 2
E|-------------------------------------------|
B|-----------5~~~~~~~~~~~~~-4~~~~~-----------|
G|-----6-4-----------------------------------|
D|---------6---------------------------------|
A|-------------------------------------------|
E|-------------------------------------------|

===============================================

Guitar 1
E|-------------------------------------------|
B|------------------7~~~~~-7/9~~~~~----------|
G|-----------6~~~~~--------------------------|
D|-----7-6-----------------------------------|
A|---------4---------------------------------|
E|-------------------------------------------|

Guitar 2
E|-------------------------------------------|
B|--------------------------------5-4--------|
G|-----6-4----------------------6------------|
D|---------6----------------6-7--------------|
A|-----------7~~6~~---4-6-7------------------|
E|------------------5------------------------|

===============================================

Guitar 1
E|-------------------------------------------|
B|-------------------------------------------|
G|-----------6~~~~~~~~~~~~~-4~~~~~-----------|
D|-----7-6-----------------------------------|
A|---------4---------------------------------|
E|-------------------------------------------|

Guitar 2
E|-------------------------------------------|
B|----5-4------------------------------------|
G|--------6----------------------------------|
D|----------6~~~~~~~~~~~~~-4~~~~~------------|
A|-------------------------------------------|
E|-------------------------------------------|

===============================================

Guitar 1
E|-------------------------------------------|
B|-------------------------------------------|
G|-----------6~~~~~-9~~~~~-5~~~~~------------|
D|-----7-6-----------------------------------|
A|---------4---------------------------------|
E|-------------------------------------------|

Guitar 2
E|-------------------------------------------|
B|------------------9~~~~~-8~~~~~~-----------|
G|-----------/9~~~~~-------------------------|
D|---------6---------------------------------|
A|-----7-6-----------------------------------|
E|-------------------------------------------|

===============================================

Guitar 1
E|-------------------------------------------|
B|-------------------------------------------|
G|-----------6~~~~~~~~~~~~~-4~~~~~-----------|
D|-----7-6-----------------------------------|
A|---------4---------------------------------|
E|-------------------------------------------|

Guitar 2
E|-------------------------------------------|
B|-----------5~~~~~~~~~~~~~-4~~~~~-----------|
G|-----6-4-----------------------------------|
D|---------6---------------------------------|
A|-------------------------------------------|
E|-------------------------------------------|

===============================================

Guitar 1
E|-------------------------------------------|
B|------------------7~~~~~-7/9~~~~~----------|
G|-----------6~~~~~--------------------------|
D|-----7-6-----------------------------------|
A|---------4---------------------------------|
E|-------------------------------------------|

Guitar 2
E|-------------------------------------------|
B|--------------------------------5-4--------|
G|-----6-4----------------------6------------|
D|---------6----------------6-7--------------|
A|-----------7~~6~~---4-6-7------------------|
E|------------------5------------------------|

===============================================

Guitar 1
E|-------------------------------------------|
B|-------------------------------------------|
G|-----------6~~~~~~~~~~~~~-4~~~~~-----------|
D|-----7-6-----------------------------------|
A|---------4---------------------------------|
E|-------------------------------------------|

Guitar 2
E|-------------------------------------------|
B|----5-4------------------------------------|
G|--------6----------------8~~~~~------------|
D|----------6~~~~~~~~~~~~~-------------------|
A|-------------------------------------------|
E|-------------------------------------------|

===============================================

Guitar 1
E|-------------------------------------------|
B|----------------7~~~-7/12~~~~~~~~~---------|
G|-----------6~~~----------------------------|
D|-----7-6-----------------------------------|
A|---------4---------------------------------|
E|-------------------------------------------|

Guitar 2
E|----------------7~~~-7/11~~~~~~~~~---------|
B|---------7-9~~~----------------------------|
G|-----6-9-----------------------------------|
D|-------------------------------------------|
A|-------------------------------------------|
E|-------------------------------------------|

Добавлено: 04.03.2012
Другие материалы по этой песне:

Страница создана 04.03.2012
http://primanota.ru/ihsahn/frozen-lakes-on-mars-chords.htm
Привет, Гость.
Предлагаем пройти революционный курс по гитаре.
Подарок от PrimaNota.Ru, забирай!