PrimaNota.ru - самый крупный в мире бесплатный архив песенных текстов, аккордов, табулатур и нот


Igor Dzambazov - Skopje Saraj Matka - таба, видео

Регистрация Запомнить меня
Войти через:  Facebook Google Twitter Vk Yandex Mail.ru

Igor Dzambazov - Skopje Saraj Matka - таба, видео

Печатать
Просмотров: 83
-------------------------------------------------------------------------------
                       SKOPJE, SARAJ, MATKA SOLO
-------------------------------------------------------------------------------


  C              Em7/B          Em           D          G
e|---------------------------------------------------------12--------------15|
B|----P.H.-------------------------------------------15b------15p12-----12---|
G|-----14-14b-14-12s14-12~----------------12b------------------------14b-----|
D|------------------------14----12h14~~--------------------------------------|
A|---------------------------14----------------------------------------------|
E|---------------------------------------------------------------------------|
                    B7                    Em            D
e|-------------------------------------------------------------------17-15p14|
B|-----------------------15--------------------------------------------------|
G|-14br12-14----12-14s16-----16s14-12----------------------------------------|
D|-----------14--------------------------------------------------------------|
A|------------------------------------14s12-10~~-----------10b---------------|
E|------------------------------------------------12-10-12-------------------|
           A                             C                   Em7/B
e|-12-10p9-10p9-----------------------------12---12--------------15----------|
B|--------------10--------------------------15b-----15p12-----12-------------|
G|-----------------9--7s6-7p6------------------------------14b------14br12-14|
D|-----------------------------7---------------------------------------------|
A|-------------------------------7~------------------------------------------|
E|-------------------------------------~~------------------------------------|
                          Em Fast /_________________________________________/
e|-------------12------------------------------------------------------------|
B|-----------12--15p12----12-15p12----12-------------------------------------|
G|----12-14b-----------14b---------15----15p14p12--12------------------------|
D|-14--------------------------------------------14--14p12--12-14p12---------|
A|--------------------------------------------------------14--------14s12p10-|
E|---------------------------------------------------------------------------|
 D                  G                       B7        Em             D
e|--------------------17b-17-15-17----15-17-15h17-15--14-15--14h15p14--------|
B|---------------------------------17--------------------------------17-15-17|
G|---------------------------------------------------------------------------|
D|-------------12~-----------------------------------------------------------|
A|----10-12s14---------------------------------------------------------------|
E|-12------------------------------------------------------------------------|
                             A
e|------------------12--12---------------------------------------------------|
B|-15h17p15~~s/-----15b----15------------------------------------------------|
G|-----------------------------14b-14--12--12s14~~~s/------------------------|
D|---------------------------------------------------------------------------|
A|---------------------------------------------------------------------------|
E|---------------------------------------------------------------------------|


************************************

| h   hammer-on
| p   pull-off
| s   slide
| ~   vibrato
| b   Bend
| pb  Pre-bend
| br  Bend release

************************************
Добавлено: 19.11.2015
Вам также может быть интересно:
Другие материалы по этой песне:
  • Аккорды и текст

Страница создана 19.11.2015
http://primanota.ru/igor-dzambazov/skopje-saraj-matka-chords.htm
Привет, Гость.
Предлагаем пройти революционный курс по гитаре.
Подарок от PrimaNota.Ru, забирай!