PrimaNota.ru - самый крупный в мире бесплатный архив песенных текстов, аккордов, табулатур и нот


Ignominious Incarceration - Dynasty Damnation - таба, видео

Регистрация Запомнить меня
Войти через:  Facebook Google Twitter Vk Yandex Mail.ru

Ignominious Incarceration - Dynasty Damnation - таба, видео

Печатать
Просмотров: 75
Уроки эстрадного вокала в Санкт-Петербурге
IGNOMINIOUS INCARCERATION
DYNASTY DAMNATION

C#-G#-C#-F#-A#-D#

*=PALM MUTE


TABBED BY andherembrace




L
--------------------------------------------------|
--------------------------------------------------|
----------------------------------555-------------|
----777888777555444---444---777888---888777555444-|
-555---------------666---555----------------------|
--------------------------------------------------|
R
-------------------------------------------------|
-------------------------------------------------|
-------------------------------------------------|
-0-----------------------------------------------|
-0--------------------------0--------------------|
-0--------------------------0--------------------|
                            *

0:04
L
---------------------------------------------------|
---------------------------------------------------|
---------------------------------------------------|
---------------------------------------------------|
----000111000---------------000111333111000--------|
-000---------555444111444000---------------555444--|
R
---------------------------------------------------|
---------------------------------------------------|
---------------------------------------------------|
---------------------------------111---------------|
---333555333111000---000---333555---555333111000---|
000---------------555---000------------------------|

L
---------------------------------------------------|
---------------------------------------------------|
---------------------------------------------------|
---------------------------------------------------|
----000111000---------------000111333111000--------|
-000---------555444111444000---------------555444--|
R
---------------------------------------------------|
---------------------------------------------------|
---------------------------------------------------|
---------------------------------111---------------|
---333555333111000---000---333555---555333111000---|
000---------------555---000------------------------|

L
---------------------------------------------------|
---------------------------------------------------|
---------------------------------------------------|
---------------------------------------------------|
----000111000---------------000111333111000--------|
-000---------555444111444000---------------555444--|
R
---------------------------------------------------|
---------------------------------------------------|
---------------------------------------------------|
---------------------------------111---------------|
---333555333111000---000---333555---555333111000---|
000---------------555---000------------------------|

L
---------------------------------------------------|
---------------------------------------------------|
---------------------------------------------------|
---------------------------------------------------|
----000111000---------------000111333111000--------|
-000---------555444111444000---------------555444--|
R
---------------------------------------------------|
---------------------------------------------------|
---------------------------------------------------|
---------------------------------111---------------|
---333555333111000---000---333555---555333111000---|
000---------------555---000------------------------|



0:21
B
----------------------------------------------------|
----------------------------------------------------|
----------------------------------------------------|
----------------------------------------------------|
-555777888777444777888777---777888777---777888777---|
-------------------------888---------555------------|

----------------------------------------------------|
----------------------------------------------------|
----------------------------------------------------|
----------------------------------------------------|
-555777888777444777888777---777888777---777888777---|
-------------------------888---------555------------|

0:29
L
----------------------------------------------------|
----------------------------------------------------|
----------------------------------------------------|
----------------------------------------------------|
-555777888777444777888777---777888777---777888777---|
-------------------------888---------555------------|
R
----------------------------------------------------|
----------------------------------------------------|
----------------------------------------------------|
----555777555---555777555---555777555---555777555---|
-888---------777---------888---------777------------|
----------------------------------------------------|

L
----------------------------------------------------|
----------------------------------------------------|
----------------------------------------------------|
----------------------------------------------------|
-555777888777444777888777-8----7---5--4-------------|
----------------------------------------------------|
R
----------------------------------------------------|
----------------------------------------------------|
----------------------------------------------------|
----555777555---555777555-7----5--------------------|
-888---------777-------------------8--7-------------|
----------------------------------------------------|


0:38
B
-----------------------------------------------------|
-----------------------------------------------------|
-----------------------------------------------------|
-----------------------------------------------------|
-3--6-5--2-------------------3--6-5--2---------------|
-3--6-5--2--2222222222222222-3--6-5--2--2222222222222|
            ****************            *************    

---------------------------------------------------------|
---------------------------------------------------------|
---------------------------------------------------------|
---------------------------------------------------------|
-3--6-5--2-------------------3--6-5--2------------------2|
-3--6-5--2--222-222-22-2-----3--6-5--2--22222222222222222|
            *** *** ** *                *****************

SOLO                                                   _           ____
    ___                _____      _       ___     ^   / \     ^   /    \    
--T/   \----^----^---T/     \---T/ \----T/   \--12-0-7-8-10--7-0-7-8-10-0|
-12-5-7-8-17-8-17-8-12/13\12-8-12-8-7--12-5-7-8--------------------------|
-------------------------------------------------------------------------|
-------------------------------------------------------------------------|
-------------------------------------------------------------------------|
-------------------------------------------------------------------------|

RYTHM
----------------------------------------------------------------|
----------------------------------------------------------------|
----------------------------------------------------------------|
----------------------------------------------------------------|
-222-222-22-2----------------------------222-222-22-2-----------|
-222-222-22-2----------------------------222-222-22-2-----------|
 *** *** ** *                            *** *** ** *      
                                                       _           ____
    ___                _____      _       ___     ^   / \     ^   /    \    
--T/   \----^----^---T/     \---T/ \----T/   \--12-0-7-8-10--7-0-7-8-10-0|
-12-5-7-8-17-8-17-8-12/13\12-8-12-8-7--12-5-7-8--------------------------|
-------------------------------------------------------------------------|
-------------------------------------------------------------------------|
-------------------------------------------------------------------------|
-------------------------------------------------------------------------|

RYTHM
----------------------------------------------------------------|
----------------------------------------------------------------|
----------------------------------------------------------------|
----------------------------------------------------------------|
-222-222-22-2----------------------------222-222-22-2-----------|
-222-222-22-2----------------------------222-222-22-2-----------|
 *** *** ** *                            *** *** ** *   

                                                       _           ____
    ___                _____      _       ___     ^   / \     ^   /    \    
--T/   \----^----^---T/     \---T/ \----T/   \--12-0-7-8-10--7-0-7-8-10-0|
-12-5-7-8-17-8-17-8-12/13\12-8-12-8-7--12-5-7-8--------------------------|
-------------------------------------------------------------------------|
-------------------------------------------------------------------------|
-------------------------------------------------------------------------|
-------------------------------------------------------------------------|

---------------------------------------------------------------|
---------------------------------------------------------------|
---------------------------------------------------------------|
---------------------------------------------------------------|
-000-000-00-0-----------------------------000-000-00-0---------|
-000-000-00-0-----------------------------000-000-00-0---------|
 *** *** ** *                             *** *** ** *

                                                       _           ____
    ___                _____      _       ___     ^   / \     ^   /    \    
--T/   \----^----^---T/     \---T/ \----T/   \--12-0-7-8-10--7-0-7-8-10-0|
-12-5-7-8-17-8-17-8-12/13\12-8-12-8-7--12-5-7-8--------------------------|
-------------------------------------------------------------------------|
-------------------------------------------------------------------------|
-------------------------------------------------------------------------|
-------------------------------------------------------------------------|

---------------------------------------------------------------|
---------------------------------------------------------------|
---------------------------------------------------------------|
---------------------------------------------------------------|
-000-000-00-0-----------------------------000-000-00-0---------|
-000-000-00-0-----------------------------000-000-00-0---------|
 *** *** ** *                             *** *** ** *

    ___                _____      _       ___     ^   / \     ^   /    \    
--T/   \----^----^---T/     \---T/ \----T/   \--12-0-7-8-10--7-0-7-8-10-0|
-12-5-7-8-17-8-17-8-12/13\12-8-12-8-7--12-5-7-8--------------------------|
-------------------------------------------------------------------------|
-------------------------------------------------------------------------|
-------------------------------------------------------------------------|
-------------------------------------------------------------------------|

RYTHM
----------------------------------------------------------------|
----------------------------------------------------------------|
----------------------------------------------------------------|
----------------------------------------------------------------|
-222-222-22-2----------------------------222-222-22-2-----------|
-222-222-22-2----------------------------222-222-22-2-----------|
 *** *** ** *                            *** *** ** *      
                                                       _           ____
    ___                _____      _       ___     ^   / \     ^   /    \    
--T/   \----^----^---T/     \---T/ \----T/   \--12-0-7-8-10--7-0-7-8-10-0|
-12-5-7-8-17-8-17-8-12/13\12-8-12-8-7--12-5-7-8--------------------------|
-------------------------------------------------------------------------|
-------------------------------------------------------------------------|
-------------------------------------------------------------------------|
-------------------------------------------------------------------------|

RYTHM
----------------------------------------------------------------|
----------------------------------------------------------------|
----------------------------------------------------------------|
----------------------------------------------------------------|
-222-222-22-2----------------------------222-222-22-2-----------|
-222-222-22-2----------------------------222-222-22-2-----------|
 *** *** ** *                            *** *** ** *   

                                                       _           ____
    ___                _____      _       ___     ^   / \     ^   /    \    
--T/   \----^----^---T/     \---T/ \----T/   \--12-0-7-8-10--7-0-7-8-10-0|
-12-5-7-8-17-8-17-8-12/13\12-8-12-8-7--12-5-7-8--------------------------|
-------------------------------------------------------------------------|
-------------------------------------------------------------------------|
-------------------------------------------------------------------------|
-------------------------------------------------------------------------|

---------------------------------------------------------------|
---------------------------------------------------------------|
---------------------------------------------------------------|
---------------------------------------------------------------|
-000-000-00-0-----------------------------000-000-00-0---------|
-000-000-00-0-----------------------------000-000-00-0---------|
 *** *** ** *                             *** *** ** *

                                                       _           ____
    ___                _____      _       ___     ^   / \     ^   /    \    
--T/   \----^----^---T/     \---T/ \----T/   \--12-0-7-8-10--7-0-7-8-10-0|
-12-5-7-8-17-8-17-8-12/13\12-8-12-8-7--12-5-7-8--------------------------|
-------------------------------------------------------------------------|
-------------------------------------------------------------------------|
-------------------------------------------------------------------------|
-------------------------------------------------------------------------|

---------------------------------------------------------------|
---------------------------------------------------------------|
---------------------------------------------------------------|
---------------------------------------------------------------|
-000-000-00-0-----------------------------000-000-00-0---------|
-000-000-00-0-----------------------------000-000-00-0---------|
 *** *** ** *                             *** *** ** *

1:12

L
----------------------------------------------------------|
----------------------------------------------------------|
----------------------------------------------------------|
----------------------------------------------------------|
-0--------------------------000111333111000---------------|
-0-----------------------000---------------555444---------|
 *
R
----------------------------------------------------------|
----------------------------------------------------------|
----------------------------------------------------------|
----------------------------------111---------------------|
----333555333111000---000---333555---555333111000---------|
-000---------------555---000------------------------------|

L
---------------------------------------------------|
---------------------------------------------------|
---------------------------------------------------|
---------------------------------------------------|
----000111000---------------000111333111000--------|
-000---------555444111444000---------------555444--|
R
---------------------------------------------------|
---------------------------------------------------|
---------------------------------------------------|
---------------------------------111---------------|
---333555333111000---000---333555---555333111000---|
000---------------555---000------------------------|

L
---------------------------------------------------|
---------------------------------------------------|
---------------------------------------------------|
---------------------------------------------------|
----000111000---------------000111333111000--------|
-000---------555444111444000---------------555444--|
R
---------------------------------------------------|
---------------------------------------------------|
---------------------------------------------------|
---------------------------------111---------------|
---333555333111000---000---333555---555333111000---|
000---------------555---000------------------------|

L
---------------------------------------------------|
---------------------------------------------------|
---------------------------------------------------|
---------------------------------------------------|
----000111000---------------000111333111000--------|
-000---------555444111444000---------------555444--|
R
---------------------------------------------------|
---------------------------------------------------|
---------------------------------------------------|
---------------------------------111---------------|
---333555333111000---000---333555---555333111000---|
000---------------555---000------------------------|


1:28
L
---------------------------------------------------|
---------------------------------------------------|
---------------------------------------------------|
---------------------------------------------------|
-0000--------------------5----1----0000------7--5--|
-0000--------------------5----1----0000------7--5--|
 ****                    *    *    ****      *  *    
R
---------------------------------------------------|
---------------------------------------------------|
---------------------------------------------------|
---------------------------------111---------------|
---333555333111000---000---333555---555333111000---|
000---------------555---000------------------------|

L
---------------------------------------------------|
---------------------------------------------------|
---------------------------------------------------|
---------------------------------------------------|
-0000--------------------5----1----0000------7--5--|
-0000--------------------5----1----0000------7--5--|
 ****                    *    *    ****      *  *    
R
---------------------------------------------------|
---------------------------------------------------|
---------------------------------------------------|
---------------------------------111---------------|
---333555333111000---000---333555---555333111000---|
000---------------555---000------------------------|


1:37

B
----------------------------------------------------|
----------------------------------------------------|
----------------------------------------------------|
----------------------------------------------------|
-555777888777444777888777---777888777---777888777---|
-------------------------888---------555------------|

----------------------------------------------------|
----------------------------------------------------|
----------------------------------------------------|
----------------------------------------------------|
-555777888777444777888777---777888777---777888777---|
-------------------------888---------555------------|

L
----------------------------------------------------|
----------------------------------------------------|
----------------------------------------------------|
----------------------------------------------------|
-555777888777444777888777---777888777---777888777---|
-------------------------888---------555------------|
R
----------------------------------------------------|
----------------------------------------------------|
----------------------------------------------------|
----555777555---555777555---555777555---555777555---|
-888---------777---------888---------777------------|
----------------------------------------------------|

L
----------------------------------------------------|
----------------------------------------------------|
----------------------------------------------------|
----------------------------------------------------|
-555777888777444777888777-8----7---5--4-------------|
----------------------------------------------------|
R
----------------------------------------------------|
----------------------------------------------------|
----------------------------------------------------|
----555777555---555777555-7----5--------------------|
-888---------777-------------------8--7-------------|
----------------------------------------------------|


1:53
B
-----------------------------------------------------|
-----------------------------------------------------|
---------_-----------_-----------_-----------_-------|
--------/ \---------/ \---------/ \---------/ \------|
-------5-7-8-------5-7-8-------5-7-8-------5-7-8-----|
-0-0-0-------0-0-0-------8-8-8-------5-5-5-----------|
 * * *       * * *       * * *       * * *            

-----------------------------------------------------|
-----------------------------------------------------|
---------_-----------_-----------_-----------_-------|
--------/ \---------/ \---------/ \---------/ \------|
-------5-7-8-------5-7-8-------5-7-8-------5-7-8-----|
-0-0-0-------0-0-0-------8-8-8-------5-5-5-----------|
 * * *       * * *       * * *       * * *      
  

L
-------------------------------------------------------|
-------------------------------------------------------|
---------_-----------_-----------__------------__------|
--------/ \---------/ \---------/  \----------/  \-----|
-------5-7-8-------5-7-8-------8-10-12-------8-10-12---|
-0-0-0-------0-0-0-------8-8-8---------8-8-8-----------|
 * * *       * * *       * * *         * * *      
R
-----------------------------------------------------|
-----------------------------------------------------|
---------_-----------_-----------_-----------_-------|
--------/ \---------/ \---------/ \---------/ \------|
-------5-7-8-------5-7-8-------5-7-8-------5-7-8-----|
-0-0-0-------0-0-0-------8-8-8-------8-8-8-----------|
 * * *       * * *       * * *       * * *      

L 
-----------------------------------------------------------|
---------_-----------_-------------------------------------|
--------/ \---------/ \------------------------------------|
-------5-7-8-------5-7-8---777777--------------------------|
---------------------------------888888------------777777--|
-7-7-7-------7-7-7---------------------101010101010--------|
 * * *       * * *                              
R
-----------------------------------------------------------|
-----------------------------------------------------------|
---------_-----------_-------------------------------------|
--------/ \---------/ \----777777--------------------------|
-------5-7-8-------5-7-8---------888888------------777777--|
-7-7-7-------7-7-7---------------------101010101010--------|
 * * *       * * *


2:08
B
---------------------------------------------------------------|
---------------------------------------------------------------|
---------------------------------------------------------------|
---------------------------------------------------------------|
-5-7-8-5-7-8-5-7-8-5-7-8-10-8-7-10-8-7-10-8-7-10-8-7-----------|
---------------------------------------------------------------|

---------------------------------------------------------------|
---------------------------------------------------------------|
---------------------------------------------------------------|
-------------------------7-5---5-------------------------------|
-5-7-8-5-7-8-5-7-8-5-7-8-----8---8-7-8-7-5-7-5-4---------------|
---------------------------------------------------------------|



2:16
L
---------------------------------------------------------------|
---------------------------------------------------------------|
---------------------------------------------------------------|
-3-5-7-3-5-7-3-5-7-3-5-7-8-7-5-8-7-5-8-7-5-8-7-5---------------|
---------------------------------------------------------------|
---------------------------------------------------------------|
R
---------------------------------------------------------------|
---------------------------------------------------------------|
---------------------------------------------------------------|
---------------------------------------------------------------|
-5-7-8-5-7-8-5-7-8-5-7-8-10-8-7-10-8-7-10-8-7-10-8-7-----------|
---------------------------------------------------------------|
L
---------------------------------------------------------------|
---------------------------------------------------------------|
-------------------------5-3-2-3-2---2-------------------------|
-3-5-7-3-5-7-3-5-7-3-5-7-----------5---5-3-5-3-2---------------|
---------------------------------------------------------------|
---------------------------------------------------------------|
R
---------------------------------------------------------------|
---------------------------------------------------------------|
---------------------------------------------------------------|
-------------------------7-5---5-------------------------------|
-5-7-8-5-7-8-5-7-8-5-7-8-----8---8-7-8-7-5-7-5-4---------------|
---------------------------------------------------------------|


2:24
B
---------------------------------------------------------------------------|
---------------------------------------------------------------------------|
---------------------------------------------------------------------------|
---------------------------------------------------------------------------|
-------------------333333000000000000000000000000555555333333222222333333--|
-111111111111111111--------------------------------------------------------|

---------------------------------------------------------------------------|
---------------------------------------------------------------------------|
---------------------------------------------------------------------------|
---------------------------------------------------------------------------|
-------------------333333000000000000000000000000555555333333222222333333--|
-111111111111111111--------------------------------------------------------|

---------------------------------------------------------------------------|
---------------------------------------------------------------------------|
---------------------------------------------------------------------------|
---------------------------------------------------------------------------|
-------------------333333000000000000000000000000555555333333222222333333--|
-111111111111111111--------------------------------------------------------|

L
---------------------------------------------------------------------------|
---------------------------------------------------------------------------|
--------------------------------------------------5-3-2-3-2---2------------|
------------------------------------------------------------5---5-3-5-3-2--|
-------------------333333000000000000000000000000--------------------------|
-111111111111111111--------------------------------------------------------|
R
---------------------------------------------------------------------------|
---------------------------------------------------------------------------|
---------------------------------------------------------------------------|
--------------------------------------------------7-5---5------------------|
-------------------333333000000000000000000000000-----8---8-7-8-7-5-7-5-4--|
-111111111111111111--------------------------------------------------------|



2:46
B
----------------------------------------------------|
----------------------------------------------------|
----------------------------------------------------|
----------------------------------------------------|
-0-1-3-----0-1-3-8-7-----0-1-3-----0-1-3-8-7--------|
-0-1-3-----0-1-3-8-7-----0-1-3-----0-1-3-8-7--------|

------------------------------------------|
------------------------------------------|
------------------------------------------|
------------------------------------------|
-0000-0000-1111-3333-0000-0000-7777-3333--|
-0000-0000-1111-3333-0000-0000-7777-3333--|
 **** **** **** **** **** **** **** ****

------------------------------------------|
------------------------------------------|
------------------------------------------|
------------------------------------------|
-0000-0000-1111-3333-0000-0000-7777-3333--|
-0000-0000-1111-3333-0000-0000-7777-3333--|
 **** **** **** **** **** **** **** ****


L
--------------------------------------------------|
--------------------------------------------------|
----------------------------------555-------------|
----777888777555444---444---777888---888777555444-|
-555---------------666---555----------------------|
--------------------------------------------------|
R
-------------------------------------------------|
-------------------------------------------------|
-------------------------------------------------|
-0-----------------------------------------------|
-0--------------------------0--------------------|
-0--------------------------0--------------------|
                            *
L
---------------------------------------------------|
---------------------------------------------------|
---------------------------------------------------|
---------------------------------------------------|
----000111000---------------000111333111000--------|
-000---------555444111444000---------------555444--|
R
---------------------------------------------------|
---------------------------------------------------|
---------------------------------------------------|
---------------------------------111---------------|
---333555333111000---000---333555---555333111000---|
000---------------555---000------------------------|

L
---------------------------------------------------|
---------------------------------------------------|
---------------------------------------------------|
---------------------------------------------------|
----000111000---------------000111333111000--------|
-000---------555444111444000---------------555444--|
R
---------------------------------------------------|
---------------------------------------------------|
---------------------------------------------------|
---------------------------------111---------------|
---333555333111000---000---333555---555333111000---|
000---------------555---000------------------------|

L
---------------------------------------------------|
---------------------------------------------------|
---------------------------------------------------|
---------------------------------------------------|
----000111000---------------000111333111000--------|
-000---------555444111444000---------------555444--|
R
---------------------------------------------------|
---------------------------------------------------|
---------------------------------------------------|
---------------------------------111---------------|
---333555333111000---000---333555---555333111000---|
000---------------555---000------------------------|

L
---------------------------------------------------|
---------------------------------------------------|
---------------------------------------------------|
---------------------------------------------------|
----000111000---------------000111333111000--------|
-000---------555444111444000---------------555444--|
R
---------------------------------------------------|
---------------------------------------------------|
---------------------------------------------------|
---------------------------------111---------------|
---333555333111000---000---333555---555333111000---|
000---------------555---000------------------------|


B
---------------------------------------------------------------------------|
---------------------------------------------------------------------------|
---------------------------------------------------------------------------|
---------------------------------------------------------------------------|
-------------------333333000000000000000000000000555555333333222222333333--|
-111111111111111111--------------------------------------------------------|

---------------------------------------------------------------------------|
---------------------------------------------------------------------------|
---------------------------------------------------------------------------|
---------------------------------------------------------------------------|
-------------------333333000000000000000000000000555555333333222222333333--|
-111111111111111111--------------------------------------------------------|

---------------------------------------------------------------------------|
---------------------------------------------------------------------------|
---------------------------------------------------------------------------|
---------------------------------------------------------------------------|
-------------------333333000000000000000000000000555555333333222222333333--|
-111111111111111111--------------------------------------------------------|

L
---------------------------------------------------------------------------|
---------------------------------------------------------------------------|
--------------------------------------------------5-3-2-3-2---2------------|
------------------------------------------------------------5---5-3-5-3-2-*|
-------------------333333000000000000000000000000-------------------------0|
-111111111111111111-------------------------------------------------------0|
R
---------------------------------------------------------------------------|
---------------------------------------------------------------------------|
---------------------------------------------------------------------------|
--------------------------------------------------7-5---5-----------------*|
-------------------333333000000000000000000000000-----8---8-7-8-7-5-7-5-4-0|
-111111111111111111-------------------------------------------------------0|
Добавлено: 02.09.2013
Другие материалы по этой песне:
  • Аккорды и текст

Страница создана 02.09.2013
http://primanota.ru/ignominious-incarceration/dynasty-damnation-chords.htm
Привет, Гость.
Предлагаем пройти революционный курс по гитаре.
Подарок от PrimaNota.Ru, забирай!