PrimaNota.ru - самый крупный в мире бесплатный архив песенных текстов, аккордов, табулатур и нот


Ignite - Where They Talk - текст песни, таба, видео

Регистрация Запомнить меня
Войти через:  Facebook Google Twitter Vk Yandex Mail.ru

Ignite - Where They Talk - текст песни, таба, видео

Печатать
Просмотров: 111
   Verse
E|--------------------------------------------------------------------------|
B|--------------------------------------------------------------------------|
G|--8-8-8-8--4-4-4-------------------------------------------------------\--|
D|--8-8-8-8--4-4-4--4-4-4-4--6-6-6-6----------------------------------------|x4
A|--6-6-6-6--2-2-2--4-4-4-4--6-6-6-6----------------------------------------|
E|------------------2-2-2-2--4-4-4-4----------------------------------------|

   Chorus
E|--------------------------------------------------------------------------|
B|--------------------------------------------------------------------------|
G|--8-8-8-8--4-----------------------------------------------------------\--|
D|--8-8-8-8--4-4--6-6-6-6--7-7----------------------------------------------|x4
A|--6-6-6-6--2-4--6-6-6-6--7-7----------------------------------------------|
E|-------------2--4-4-4-4--5-5----------------------------------------------|

   Verse
E|-11--------------------------------------------------------------------|
B|----11-----------------------------------------------------------------|
G|-------11--4-4-4---------------------8-8-8-8--4-4-4--------------------|
D|-----------4-4-4--4-4-4-4--6-6-6-6---8-8-8-8--4-4-4--4-4-4-4--6-6-6-6--|
A|-----------2-2-2--4-4-4-4--6-6-6-6---6-6-6-6--2-2-2--4-4-4-4--6-6-6-6--|
E|------------------2-2-2-2--4-4-4-4-------------------2-2-2-2--4-4-4-4--|

   Chorus
E|--------------------------------------------------------------------------|
B|--------------------------------------------------------------------------|
G|--8-8-8-8--4-----------------------------------------------------------\--|
D|--8-8-8-8--4-4--6-6-6-6--7-7----------------------------------------------|x4
A|--6-6-6-6--2-4--6-6-6-6--7-7----------------------------------------------|
E|-------------2--4-4-4-4--5-5----------------------------------------------|

   Solo
E|--11-----------------11------------------------------------------------|
B|-----11-----------------11---------------------------------------------|
G|--------11-------------------------------------------------------------|
D|-----------------------------------------------------------------------|
A|------------4-6---------------4-6-----9-8-9---11-9-8-6-4-6-------------|
E|-----------------------------------------------------------------------|

E|--11-----------------------------------11------------------------------|
B|-----11--14-11----------------------------11--14-11--------------------|
G|-----------------------------------------------------------------------|
D|-----------------------------------------------------8-----------------|
A|----------------9-8-9--11-9-8-6-4-6---------------------11-9-8-9-------|
E|-----------------------------------------------------------------------|

E|---------------------11------------------------------------------------|
B|------------------------11--14-11--------------------------------------|
G|-----------------------------------------------------------------------|
D|-----------------------------------8-----------------------------------|
A|--11-9-8-6-4-6------------------------11-9-8-9--11-9-8-6-4-6-----------|
E|-----------------------------------------------------------------------|

   Chorus
E|--------------------------------------------------------------------------|
B|--------------------------------------------------------------------------|
G|--8-8-8-8--4-----------------------------------------------------------\--|
D|--8-8-8-8--4-4--6-6-6-6--7-7----------------------------------------------|x4
A|--6-6-6-6--2-4--6-6-6-6--7-7----------------------------------------------|
E|-------------2--4-4-4-4--5-5----------------------------------------------|

   Outro
E|--11--------------------------------6----------------------------------||
B|-----11-----------------------------7----------------------------------||
G|--------11-----------8--------------8----------------------------------||
D|------------------8-------4-6-------8----------------------------------||
A|------------4-6---------------6-----6----------------------------------||
E|-----------------------------------------------------------------------||
Добавлено: 23.03.2012
Другие материалы по этой песне:
  • Аккорды и текст

Страница создана 23.03.2012
http://primanota.ru/ignite/where-they-talk-chords.htm
Привет, Гость.
Предлагаем пройти революционный курс по гитаре.
Подарок от PrimaNota.Ru, забирай!