PrimaNota.ru - самый крупный в мире бесплатный архив песенных текстов, аккордов, табулатур и нот


Ignite - Know Your History - текст песни, бас-таба, видео

Регистрация Запомнить меня
Войти через:  Facebook Google Twitter Vk Yandex Mail.ru

Ignite - Know Your History - текст песни, бас-таба, видео

Печатать
Просмотров: 149
Ignite – Know Your History – Our Darkest Days

I know the timing isn't perfect but you can here it easily when you listen to the song

Verse:
G|-----------------------------------------------------|
D|-555-2222222-555-2222222-555-----555-----555-2222222-|
A|-----------------------------333-----555-------------|	3x
E|-----------------------------------------------------|

Chorus:
G|------------------------------------------------------------------------------------|
D|----------222-222-222-222----222-222-222-222----------------222-222-222-222---------|
A|-5-3-----------------------------------------3333333------------------------3333333-|	
E|-----5-3>-----------------3>-------------------------333333-------------------------|

Verse x2
Chorus
Verse x2

Bridge: (1:18)
G|-----------------------|
D|-----------------------|
A|-3-0-5-0-57-2222222222-|	3X
E|-----------------------|

G|-------|
D|-------|
A|-3-0-5-|
E|-------|

Verse x2

End: (1:46)

G|-------------------------------------------------------|
D|-555-7--------555-7--------555-----555-----555-2222222-|
A|-------777777-------777777-----333-----555-------------|	
E|-------------------------------------------------------|

G|-------------------------------------------------------------|
D|-555-7--------555-7--------555----5-5-5----5-5-5-2~-2222222~-|
A|-------777777-------777777-----3~-------5~-------------------|	
E|-------------------------------------------------------------|

This is one of my first tabs so please rate.
Добавлено: 30.03.2012
Другие материалы по этой песне:
  • Аккорды и текст

Страница создана 30.03.2012
http://primanota.ru/ignite/know-your-history-chords.htm
Привет, Гость.
Предлагаем пройти революционный курс по гитаре.
Подарок от PrimaNota.Ru, забирай!