PrimaNota.ru - самый крупный в мире бесплатный архив песенных текстов, аккордов, табулатур и нот


Ignis Fatuu - Mondnacht - текст песни, таба, видео

Регистрация Запомнить меня
Войти через:  Facebook Google Twitter Vk Yandex Mail.ru

Ignis Fatuu - Mondnacht - текст песни, таба, видео

Печатать
Просмотров: 113
-------------------------------------------------------------------------------
                             Mondnacht - Ignis Fatuu
-------------------------------------------------------------------------------
Tabbed by: pawagn
E-mail:

Tuning: Drop D (D-A-D-G-B-E)

Intro(clean):

e|------------------------------------|
B|------------------------------------|
G|------------------------------------|
D|---7-----3---0------7-----3---0-----|
A|------------------7-----------------|
D|-7-----3---0----7-------3---0-------|

Verse 1(clean):
                                                              x2
e|----------------------------------------------------------|
B|--------------------------------------------------------*-|
G|----------------------------------------------------------|
D|-----7------7------7-----7------3-----3------0-----0------|
A|--------------------------------------------------------*-|
D|-7-7----7-7----7-7---7-7----3-3---3-3----0-0---0-0--------|

Pre-chorus 1(light distortion):

e|--------------------|
B|--------------------|
G|--------------------|
D|-7---7-7---3---3-0--|
A|-7---7-7---3---3-0--|
D|-7---7-7---3---3-0--|

pre-chorus 2(light distortion):

e|-------------|
B|-------------|
G|-------------|
D|-3--5--3--5--|
A|-3--5--3--5--|
D|-3--5--3--5--|

Chorus(distortion):
            x4 
e|-----------|
B|-----------|
G|-----------|
D|-7--7\3--5-|
A|-7--7\3--5-|
D|-7--7\3--5-|

post-chorus(distortion):

e|---------------------------------------------------------------------------|
B|---------------------------------------------------------------------------|
G|---------------------------------------------------------------------------|
D|-7-7-7-7-7-7-7-7-7-7-7-7-7-7-7-7-7-7-7-7-7-7-3-3-3-3-3-3-3-3-3-3-3-0-0-0-0-|
A|-7-7-7-7-7-7-7-7-7-7-7-7-7-7-7-7-7-7-7-7-7-7-3-3-3-3-3-3-3-3-3-3-3-0-0-0-0-|
D|-7-7-7-7-7-7-7-7-7-7-7-7-7-7-7-7-7-7-7-7-7-7-3-3-3-3-3-3-3-3-3-3-3-0-0-0-0-|
     * * *   * * *   * *   * * *   * * *   * *   * * *   * * *   * *   * * *


                        x2
e|-------------------|
B|-----------------*-|
G|-------------------|
D|-0-0-0-0-0-0-0-----|
A|-0-0-0-0-0-0-0---*-|
D|-0-0-0-0-0-0-0-----|
     * * *   * *



Verse 2:
                                                                       x2
e|--------------------------------------------------------------------|
B|------------------------------------------------------------------*-|
G|--------------------------------------------------------------------|
D|-7-----7-----7---7-----7-----7---3-----3-----3---0-----0-----0------|
A|-7-----7-----7---7-----7-----7---3-----3-----3---0-----0-----0----*-|
D|-7-7-7-7-7-7-7-7-7-7-7-7-7-7-7-7-3-3-3-3-3-3-3-3-0-0-0-0-0-0-0-0----|
     * *   * *   *   * *   * *   *   * *   * *   *   * *   * *   *


Order:
-Intro
-Verse 1
-pre-chorus 1
.pre-chorus 2
-Chorus
-post-chorus
-Verse 2
-pre-chorus 2
-Chorus
-post-chorus
-pre-chorus 1 (x2)
-pre-chorus 2
-Chorus
-post-chorus (last time with A5 at the end)


That's it! :) Have fun!


************************************

| \   slide down
| *   Mute note


************************************

Official website : http://www.ignisfatuu.de/
Добавлено: 03.07.2013
Вам также может быть интересно:
Другие материалы по этой песне:
  • Аккорды и текст

Страница создана 03.07.2013
http://primanota.ru/ignis-fatuu/mondnacht-chords.htm
Привет, Гость.
Предлагаем пройти революционный курс по гитаре.
Подарок от PrimaNota.Ru, забирай!