PrimaNota.ru - самый крупный в мире бесплатный архив песенных текстов, аккордов, табулатур и нот


Iggy Pop - No Fun - аккорды и текст, таба, видео

Регистрация Запомнить меня
Войти через:  Facebook Google Twitter Vk Yandex Mail.ru

Iggy Pop - No Fun - аккорды и текст, таба, видео

Печатать
Просмотров: 347
Авторы: Iggy Pop
Авторы музыки: Dave Alexander, James Newell June Osterberg, Scott Asheton, Ron Asheton

No Fun
Iggy Pop
e----------------------------------
b----------------------------------
g-------------------4-4---4-----4--
d-4-4---4-x---4-----4-4-0-4-x-0-4-0 x3
a-4-4-0-2-x-0-4-0---2-2-0-2-x-0-2-0
e-2-2-0-2-x-0-2-0-----------x------


e------------------
b------------------
g------------------
d-4-4---4-x---4---- repeat this 17 times till where it iggy says "or
a-4-4-0-2-x-0-4-0-- freaked out for another day".
e-2-2-0-2-x-0-2-0-- for ther gud pnuk sound add sum slashes of the open
strings now and again like it does thru the song.

e------------------
b------------------
g------------------
d-4-4---4-x---4---- repeat this 17 times until where it says "or, in
a-4-4-0-2-x-0-4-0-- love, with no body else"
e-2-2-0-2-x-0-2-0--


e------------------
b------------------
g------------------
d-4-4---4-x---4----
a-4-4-0-2-x-0-4-0-- play 4 times - the after that play
e-2-2-0-2-x-0-2-0-- it 4 times with a slash after every
one.

e----------------------------------
b----------------------------------
g-------------------4-4---4-----4--
d-4-4---4-x---4-----4-4-0-4-x-0-4-0 now play this to the very end of the
a-4-4-0-2-x-0-4-0---2-2-0-2-x-0-2-0 very end of the song.
e-2-2-0-2-x-0-2-0-----------x------

now after u have played the above until iggy says "come on let me tell ya how
i feel" the solo comes in ladys and gents this is with th secong guitar.

the solo:

e---------------------------------------------------------------------------
B---------------------------------------------------------------------------
G---------------------------------------------------------------------------
D--13b----13b--13b----11h13b--13b--13b---13b-----13b-----13b----------13b---
A---------------------------------------------------------------------------
E---------------------------------------------------------------------------
2:49


e---------------------------------------------------------------------------
B---------------------------------------------------------------------------
G---------------------------------------------------------------------------
D--12b-12b-12b-12br--10--------------10br---------------------10--12--12br--
A-----------------------12--10h12p10------12---12-10h12-10h12---------------
E---------------------------------------------------------------------------
3:17


e---------------------------------------------------------------------------
B---------------------------------------------------------------------------
G---------------------------------------------------------------------------
D--10h12p10-------------------------------------------------/2--2/5--7v-----
A------------12--12-11-10---------------------3---------3h5-----------------
E-------------------------12--10--8----5--3h5---5---3h5---------------------
3:23


e---------------------------------------------------------------------------
B---------------------------------------------------------------------------
G---------------------------------------------------------------------------
D--10h12p10--12b---12b-12b-12b-12br--10h12p10-------------10-12b--13br-13br-
A---------------------------------------------12-10-12-10-------------------
E---------------------------------------------------------------------------
3:29


e-----------------------------------------10--------------------------------
B---------------------------------------------------------------------------
G---------------------------------------------------------------------------
D-13br-13br-------10h12p10----10h12p10-------10------------------10-12------
A-----------12p10----------12----------12-------12---------10h12-------12---
E----------------------------------------------------10h12------------------
3:


e---------------------------------------------------------------------------
B----------/10--------------------------------------------------------------
G---------------12/14-12--13b-13b-13b-13b-13b-13br--12h14p12----------12br--
D-10-12------------------------------------------------------14-12h14-------
A-------12------------------------------------------------------------------
E---------------------------------------------------------------------------
3:


e---------------------------------------------------------------------------
B---------------------------------------------------------------------------
G-12H14-12----12h14-12h14-12h14-12h14--12-14-14br-14br--12h14-12v--12h14-12-
D----------14---------------------------------------------------------------
A---------------------------------------------------------------------------
E---------------------------------------------------------------------------
3:51


e---------------------------------------------------------------------------
B---------------------------------------------------------------------------
G------------------------------12----12--14--14br--14b-14--16--14--16--14b--
D-------------14-12---12b---14----14----------------------------------------
A-12h14-12h14---------------------------------------------------------------
E---------------------------------------------------------------------------
3:57

(Stacato)
e---------------------------------------------------------------------------
B---------------------------------------------------------------------------
G-14b-14b-14b-14b-14b-14b-14b-14br-14-14-14b-14b-14b---14--16\---10h12-10---
D---------------------------------------------------------------------------
A---------------------------------------------------------------------------
E---------------------------------------------------------------------------
4:03


e---------------------------------------------------------------------------
B---------------------------------------------------------------------------
G---------------------------------------------------------------------------
D----------10---12----10---12----10------------10-----10b---10b-10b-10br----
A-12-10h12---------12---------12----12--10--12----12------------------------
E---------------------------------------------------------------------------
4:07


e---------------------------------------------------------------------------
B---------------------------------------------------------------------------
G------------5-----5-----------7b---7b-7b--5h7-----5---5---5bv~~--5br-5br---
D----------7---5h7----7--7--5------------------5h7---7---7------------------
A--7--7--5------------5--5--3-----------------------------------------------
E--5--5--3------------------------------------------------------------------
4:13


e---------------------------------------------------------------------
B---------------------------------------------------------------------
G--5br--5-5-5-5-5v--5-5-5-5-5-5v--5-5-5-5-5v--5--------5--5-5-5-5-5v--
D-----------------------------------------------7--5h7----------------
A---------------------------------------------------------------------
E---------------------------------------------------------------------
4:20


e---------------------------------------------------------------
B---------------------------------------------------------------
G---5-5-5-5--5-5--5-5--7b-7-7b-7-7b-7-7b-7-7b-7-7b-7-7b-7-7b-7--
D---------------------------------------------------------------
A---------------------------------------------------------------
E---------------------------------------------------------------
4:25

e------------------------------------------------------------------------
B------------------------------------------------------------------------
G--7b--5v-5v--5v-5br-5--6-6-4---------7-7-5-5bbbrrr-6-6-4---------7-7-5--
D-----------------------7-7-5-5bbbrrr-7-7-5---------7-7-5-7bbbrrr-7-7-5--
A-----------------------7-7-5---------5-5-3---------7-7-5---------5-5-3--
E-----------------------5-5-3-----------------------5-5-3----------------
4:30


e---------------------------------------------------------------------------
B---------------------------------------------------------------------------
G---------------------------------------------------------------------------
D--12b-12-12-12-12-12br-10h12p10-------10--10h12-10h12-10h12-12b-12b-12b-12b
A--------------------------------10h12--------------------------------------
E---------------------------------------------------------------------------
4:38 (Bend Slowly
while Stacatto
picking)

e---------------------------------------------------------------------------
B---------------------------------------------------------------------------
G---------------------------------------------------------------------------
D-12b-12b-12b-12b-12b-12b--12-10---------------/15v~~~-14b-14b-14b-14b-14b~~
A--------------------------------12--10h12-12-------------------------------
E---------------------------------------------------------------------------
4:43


e---------------------------------------------------------------------------
B---------------------------------------------------------------------------
G---------------------------------------------------------------------------
D--14b--14v--14-14b-14-14b-14-14b--4-------4-------4-------7--------4-------
A----------------------------------4-------4-------4-------4--------4-------
E----------------------------------2-------2-------2-------2--------2-------
Добавлено: 10.01.2014
Другие материалы по этой песне:

Страница создана 27.02.2012
http://primanota.ru/iggy-pop/no-fun-chords.htm
Привет, Гость.
Предлагаем пройти революционный курс по гитаре.
Подарок от PrimaNota.Ru, забирай!