PrimaNota.ru - самый крупный в мире бесплатный архив песенных текстов, аккордов, табулатур и нот


Iggy Pop - Dreams Of - таба, видео

Регистрация Запомнить меня
Войти через:  Facebook Google Twitter Vk Yandex Mail.ru

Iggy Pop - Dreams Of - таба, видео

Печатать
Просмотров: 98
-------------------------------------------------------------------------------
                       DREAM OF MIRRORS - IGGY POP
-------------------------------------------------------------------------------


   intro
                                                                             
x2
e |---------------------------------------------------------------------------|
B |------4h5h4----------4h54---7-------4h5h4----------------------------------|
G |------------5-------------5---------------5-----------------5-4------------|
D |-7-7----------5--7-7-----------7-7----------5-----------3-2----------------|
A |-7-7-------------7-7-----------7-7--------------3-2-3-2--------------------|
E |-5-5-------------5-5-----------5-5-----------------------------------------|



e |-------------------------------------------------------------------------------------------|
B |--------5--5h6h5---5---------5--5h6h5---5-6-8--------3--3h4h3---3--------5--5h6h5---5-6-8--|
G |-----------------7--------------------7-----------------------5-------------------7--------|
D |-7-7-7----------------7-7-7--------------------5-5-5---------------7-7-7-------------------|
A |-------------------------------------------------------------------------------------------|
E |-------------------------------------------------------------------------------------------|


     guitar 1:                        x4
e |------------------------------------|
B |------------------------------------|
G |-9h10h9----7h9h7---5h7h5---4h5h4----|
D |-------10-------9-------7-------5---|
A |------------------------------------|
E |------------------------------------|

On the 5th time and there on guitar 2 plays
this underneath the first strike:

e |-0--|
B |-0--|
G |-2--|
D |-2--|
A |-0--|
E |----|

  " All my hopes and expectations... "
  guitar 1                                guitar 2                           
             x4
e |---------------------------------------|-0---------------------0------------------------|
B |---------------------------------------|-1---------------------3------------------------|
G |------10---------10--------7-------7---|-2---------------------2------------------------|
D |---10----10---10----10---7---7---7---7-|-3---------------------0------------------------|
A |-8----------8----------5-------5-------|-3----------------------------------------------|
E |---------------------------------------|-1----------------------------------------------|


  " The dream is true... "
                               x3                     4th time
e |-----------------------------|----------------------------|
B |----------1-0-----(1)--------|----------1-0---------------|
G |-----2----2-2------0-----(0)-|-----2----2-2---------------|
D |---2---2---------2--------0--|---2---2-----------3------5-|
A |-0-------------3--------2----|-0---------------3------5---|
E |----------------------3------|---------------1------3-----|


   F5               D5
   All my hopes and expactation
   F5            D5
   Looking for an explanation
   F5           D5
   Coming to the realization
   F5                   G5
   That I can't see for sure

Chorus:

        A5              F5       G5
     I only dream in black and white
     A5                    F5   G5
     I only dream 'cause I'm alive
     A5              F5        G5
     I only dream in black and white
        F5                G5
     To save me from myself


The fast part:


e |-----------------------------------------------------------------|
B |-----------------------------------------------------------------|
G |--4h5---4-4-------4h5---4-4-------2h3---2-2-------2h3---2-2------|
D |------7----7---7-----7-----7---7------5-----5---5-----5----5---5-|
A |-------------7---------------7----------------5--------------5---|
E |-----------------------------------------------------------------|

        A5
     Lost in a dream of mirrors
     G5
     Lost in paradox
     A5
     Lost and time is spinning
     F5           G5
     Lost a nightmare I retrace



   Interlude:

                  x3      4th time                                            
harmony
e |-------------------------|--------------| |-----------------------------------|--------------|
B |-------------------------|--------------| |-----------------------------------|--------------|
G |-5-4-------999-777-555-4-|-5-4--------4-| |-9------------121212-101010-999----|9-------------|
D |-----7-5-7---------------|-----7-5-7----| |---12-10-9-10-------------------12-|-12-10-9-10-12|
A |-------------------------|--------------| |-----------------------------------|--------------|
E |-------------------------|--------------| |-----------------------------------|--------------|



Solo: A5 F5 C5 F5 G5



  outro:          x2
e |----------------------|
B |----------------------|
G |------9h10h9--------7-|
D |------------10--------|
A |-0-0-----------0-0----|
E |----------------------|
Добавлено: 22.08.2013
Другие материалы по этой песне:
  • Аккорды и текст

Страница создана 22.08.2013
http://primanota.ru/iggy-pop/dreams-of-chords.htm
Привет, Гость.
Предлагаем пройти революционный курс по гитаре.
Подарок от PrimaNota.Ru, забирай!