PrimaNota.ru - самый крупный в мире бесплатный архив песенных текстов, аккордов, табулатур и нот


Iggy & The Stooges - Head On - таба, видео

Регистрация Запомнить меня
Войти через:  Facebook Google Twitter Vk Yandex Mail.ru

Iggy & The Stooges - Head On - таба, видео

Печатать
Просмотров: 86
Уроки эстрадного вокала в Санкт-Петербурге
Song: Head On
Album: More Power
Artist: Iggy and the Stooges
Written: Pop/Williamson
Tab by FP Carolan

I think this is pretty accurate, but am open to suggestions.

INTRO

E|----------------------------------------------------------|
B|----------------------------------------------------------|
G|-2(repeatedly)-2-0----------------------------------------|
D|-------------------2-0------------------------------------|
A|-----------------------2-0--------------------------------|
E|---------------------------3-0----------------------------|

E|----------------------------------------------------------|
B|----------------------------------------------------------|
G|--------12----------12-12-12----------12---------12-12-12-|
D|-7-7-7--12---7-7-7--12-12-12---7-7-7--12---7-7-7-12-12-12-|
A|-7-7-7--10---7-7-7--10-10-10---7-7-7--10---7-7-7-10-10-10-|
E|-5-5-5-------5-5-5-------------5-5-5-------5-5-5----------|

E|----------------------------------------------------------|
B|----------------------------------------------------------|
G|-7--5---------------12-12-12------------------------------| x6
D|-7--5--7-7---7-7-7--12-12-12------------------------------|
A|-5--3--7-7---7-7-7--10-10-10------------------------------|
E|-------5-5---5-5-5----------------------------------------|

E|----------------------------------------------------------|
B|----------------------------------------------------------|
G|------12-12-12--------------------------------------------| x25
D|---7--12-12-12--(Repeat roughly 25 times)-----------------|
A|--7---10-10-10--------------------------------------------|
E|-5--------------------------------------------------------|

E|----------------------------------------------------------|
B|----------------------------------------------------------|
G|-5-5-5-5----------------12-12-12-------12-12-12=----------| x2
D|-5-5-5-5--5-5-5-5----7--12-12-12----7--12-12-12-----------|
A|-3-3-3-3--5-5-5-5---7---10-10-10---7---10-10-10-----------|
E|----------3-3-3-3--5--------------5-----------------------|
Добавлено: 08.01.2014
Другие материалы по этой песне:
  • Аккорды и текст

Страница создана 08.01.2014
http://primanota.ru/iggy-and-the-stooges/head-on-chords.htm
Привет, Гость.
Предлагаем пройти революционный курс по гитаре.
Подарок от PrimaNota.Ru, забирай!