PrimaNota.ru - самый крупный в мире бесплатный архив песенных текстов, аккордов, табулатур и нот


Iggy & The Stooges - Gimme Some Skin - таба, видео

Регистрация Запомнить меня
Войти через:  Facebook Google Twitter Vk Yandex Mail.ru

Iggy & The Stooges - Gimme Some Skin - таба, видео

Печатать
Просмотров: 78
Уроки эстрадного вокала в Санкт-Петербурге
-----------------------------------------------------------------------------   
                   Gimme Some Skin - Iggy and The Stooges
-----------------------------------------------------------------------------


Tabbed by: sugarpunk33
Instrument: Electric guitar(James williamson)
Standard Tuning



CHORUS

E|------------------| E|------------------|   
B|------------------| B|------------------|  
G|------------------| G|----7-------------|  
D|-7--7--7--7-7-7-7-| D|-5--7--7--7-7-7-7-|   
A|-7--7--7--7-7-7-7-| A|-5--5--7--7-7-7-7-|   
E|-5--5--5--5-5-5-5-| E|-3-----5--5-5-5-5-|X2 

E|------------------------------------|    E|-----------------|
B|------------------------------------|    B|-----------------|
G|-5-------------7---5----------------|    G|-5-------------7-|
D|-5--5--7--7-7--7---5--5--7--7-7-7-7-|    D|-5--5--7--7-7--7-|
A|-3--5--7--7-7--5---3--5--7--7-7-7-7-|    A|-3--5--7--7-7--5-|
E|----3--5--5-5---------3--5--5-5-5-5-|X2  E|----3--5--5-5----|



PRE-VERSE

E|-----------------------------------|
B|-----------------------------------|
G|---------9999999-------------------|
D|-7777777-9999999-5555555-777777777-|
A|-7777777-7777777-5555555-777777777-|
E|-5555555---------3333333-555555555-|You can play this with single notes



VERSE 1

E|--------------------------------|
B|--------------------------------|
G|-7-7/9--7--7-7/9---7-7/9--7-7-9-|
D|-7-7/9--7--7-7/9---7-7/9--7-7-9-|
A|-5-5/7--5--5-5/7---5-5/7--5-5-7-|
E|--------------------------------|X4

E|---------------------------------------------------------------------|
B|---------------------------------------------------------------------|
G|---------9999999--------------------------9999999--------------------|
D|-7777777-9999999-55555555555555---7777777-9999999-5555555-777777777--|
A|-7777777-7777777-55555555555555---7777777-7777777-5555555-777777777--|
E|-5555555---------33333333333333---5555555---------3333333-555555555--|



VERSE 2

E|--------------------------------|
B|--------------------------------|
G|-7-7/9--7--7-7/9---7-7/9--7-7-9-|
D|-7-7/9--7--7-7/9---7-7/9--7-7-9-|
A|-5-5/7--5--5-5/7---5-5/7--5-5-7-|
E|--------------------------------|X10

E|--------------------------------------------------------------------|
B|--------------------------------------------------------------------|
G|---------9999999--------------------------9999999-------------------|
D|-7777777-9999999-55555555555555---7777777-9999999-5555555-777777777-|
A|-7777777-7777777-55555555555555---7777777-7777777-5555555-777777777-|
E|-5555555---------33333333333333---5555555---------3333333-555555555-|



OUTRO

E|------------------|    E|-----------------|
B|------------------|    B|-----------------|
G|-5----------------|    G|-5---------------|
D|-5--5--7--7-7-7-7-|    D|-5--5--7--7-7--7-|
A|-3--5--7--7-7-7-7-|    A|-3--5--7--7-7--7-|
E|----3--5--5-5-5-5-|X3  E|----3--5--5-5--5-|


ORDER:

chorus
pre-verse
verse 1 X2
chorus
pre-verse
verse 2
chorus
outro
Добавлено: 16.06.2013
Другие материалы по этой песне:
  • Аккорды и текст

Страница создана 16.06.2013
http://primanota.ru/iggy-and-the-stooges/gimme-some-skin-chords.htm
Привет, Гость.
Предлагаем пройти революционный курс по гитаре.
Подарок от PrimaNota.Ru, забирай!